This is my first try at tabbing, but hopefully not my last.  Hope you like this song, if played with Chorus and a bit of distortion it sounds great.  Must be played with feeling...enjoy!

Chords used:
   D   Bm7    G     Asus4
e|-2---2------3------------|
B|-3---3------3------3-----|
G|-2---2------0------0-----|
D|-0---4------0------2-----|
A|-----2------2------0-----|
E|------------3------------|

Intro:
e|-2-3-2--2----3------0-2--2-3-2--2----3-3--2-|
B|-3------3-2--3-3-0--3----3------3-2--3-3--3-|
G|-2------2----0------2----2------2----0-0--2-|
D|-0------4----0------0----0------4----0-0--0-|
A|--------2----2------------------2----2-2----|
E|-------------3-----------------------3-3----|

Rhythm fig #1 (a & b) (strumming 1a 3 times then 1b once)
1a: 3x              1b: 1x
e|-2---2---3---2-| |--2---3---------2-|
B|-3---3---3---3-| |--3---3---3-3---3-|
G|-2---2---0---2-| |--2---0---0-0---2-|
D|-0---4---0---0-| |--4---0---2-2---0-|
A|-----2---2-----| |--2---2---0-0-----|
E|---------3-----| |------3-----------|

solo #1: (with rhythm fig #1)
e|---------------------------------------------------------|
B|-7~-8-7-----------------------7-8------------------------|
G|--------9-7~-----7~--9/11~~-------7h9p7~-----7--9/11--7~~|
D|-------------7h9---9---------------------7h9-------------|
A|---------------------------------------------------------|
E|---------------------------------------------------------|

e|---------------------------------------------------------|
B|-----7-10-7-/12~---------------------1210-7-------------|
G|-7-9-----------------7~~4-/9-/11~~----------11~9-7~----|
D|-----------------7h9----------------------------------7h9|
A|---------------------------------------------------------|
E|---------------------------------------------------------|

e|---------------|
B|---------------|
G|-7-7---7h9p7~~-|
D|-----9---------|
A|---------------|
E|---------------|

Verse:
D          Bm7            G       D
People get ready, for the train a commin
    D             Bm7               G      D
You don't need no baggage, you just get on board
        D       Bm7                G       D
All you need is faith, to hear the diesels hummin
Bm7           G                Asus      D
Don't need no ticket, you just thank the lord

fill #1:
e|----------17~~-----------17~~|
B|-15----15-------15----15-----|
G|----14-------------14--------|
D|-----------------------------|
A|-----------------------------|
E|-----------------------------|

People get ready, for the train to Jordan
Picking up passengers, from coast to coast
Faith is the key, open the doors and board them
There's room for all, among the loved the most

solo #2:
e|---------------------------------------------------------|
B|-7-8-7---------------------------------------------------|
G|-------9-7~-----7~--9/119-------7---7-9/11-7~----7-/11--|
D|------------7-9---9---------7h9----9-----------7h9-------|
A|---------------------------------------------------------|
E|---------------------------------------------------------|

e|10-------------------------------------------------------|
B|----------8p7-8p7-7-----------------------------/7-10-/12|
G|---9-7~~------------11p9-11p9-9----7-9~-7--9/11~---------|
D|--------------------------------7h9----------------------|
A|---------------------------------------------------------|
E|---------------------------------------------------------|

e|------------------------------|
B|-10-7-------------------------|
G|------/11~-9-7~-----7-7-7h9p7-|
D|----------------7h9-----------|
A|------------------------------|
E|------------------------------|

There ain't no room, for the hopeless sinner
Who would hurt all mankind, just to save his own
Have pity on those, whose chances grow thinner
Cause there's no hiding place, from the Kingdom's Throne

So people get ready, for the train a-comin'
You don't need no baggage, you just get on board
All you need is faith, to hear the diesels humming
Don't need no ticket, you just, you just thank the Lord

fill #2:
e|----------17~~-----------17~~----------18~-16b-18~~|
B|-15----15-------15----15------16----16-------------|
G|----14-------------14------------15----------------|
D|---------------------------------------------------|
A|---------------------------------------------------|
E|---------------------------------------------------|

solo #3:
e|---------------------------------------------------------|
B|---8-8-8-------------------------11-9------11~-9---------|
G|--8-8----/12~~-10-8-10--8-10/12~------10-8------10-8~----|
D|-8----------------------------------------------------8h-|
A|---------------------------------------------------------|
E|---------------------------------------------------------|

e|-----------------------11----11-13bb------11-11----15-16-|
B|----------------/11-13----13----------/13-------13-------|
G|---8-10~/12-8~-------------------------------------------|
D|10-------------------------------------------------------|
A|---------------------------------------------------------|
E|---------------------------------------------------------|

e|17-b14r-----18-17-16-15-15---------14-15-16-18-20-20bb~~-|
B|--------15~----------------15-/15~-----------------------|
G|---------------------------------------------------------|
D|---------------------------------------------------------|
A|---------------------------------------------------------|
E|---------------------------------------------------------|

e|---------------------------------------------------------|
B|---10bb----------8-9-11----------------------------------|
G|-8----------8-10--------1210-8~--10b-10br8--------------|
D|-8------8-10-------------------------------10-7b-7br5----|
A|-----------------------------------------------------7-5-|
E|---------------------------------------------------------|

e|---------------------------------------------------------|
B|-------------------------------------------9bb-/8~-------|
G|----------------------8---10bb-----8-8-------------8---8-|
D|----/8~-/10-8~--/8-10---10-----/10-----10------------10--|
A|---------------------------------------------------------|
E|7-0------------------------------------------------------|

e|-----------------11-11---14-14-----|
B|-------------/13---------------15~~|
G|8~---8---8~------------------------|
D|---10--10--------------------------|
A|-----------------------------------|
E|-----------------------------------|

outro:(Muted a:7 times, then b:)
a:                b:
e|-------------| |-8----------|
B|-78787-78787-| |---10b-8~~~-|
G|-------------| |------------|
D|-------------| |------------|
A|-------------| |------------|
E|-------------| |------------|

Tabbed by: gxj87


Текст, аккорды и табулатура для песни "People Get Ready", исполняет "Beck Jeff".
Используемые в песне аккорды можно найти в разделе Как брать аккорды. Аккорды для шестиструнной гитары. Другие песни можно найти на нашем сайте, воспользовавшись алфавитным указателем вверху страницы.


Слушать онлайн People Get Ready


StingPeople Get Ready на Яндекс.Музыке


 
Ошибка в тексте? Выделите ошибку и нажмите Ctrl+Enter