=============================================================================
I Song Name : Sexx Laws                                                     I
I Artist    : Beck                                                          I
I Tabbed by : James Pucyk ([email protected])                         I
I============================================================================
I This is a very cool bassline, a great mix of funky bass playing , melodic I
I bass playing and modern bass playing.                                               I
I                                                                           I
I Enjoy!!                                                                   I
=============================================================================

Verse Bassline

  Can't you hear..Cavalry   There the pixil.... moan 
   B              G#        A                   F#          
G|------------------------|-------7-9-7-6---------------4-------------|
D|*----------------------*|---5h7---------7-6-4-4-2/4-6---6-4-2-0-----|
A|*0h2-2-2---------------*|---------------------------------------4-2-|
E|----------023-4-4-0234--|-5-----------------------------------------|
   (Repeat this 3 times)

Chorus Bassline

   I  want  to  defy the  logic of all sex laws   
   E                      G#            C#
G|----------7/9--7--6-----------4----------4---------|
D|---66-7-9-----------9-7-6-6-46--6-4----46--6-4-----|
A|-7-----------------------------------4---------6-4-|
E|---------------------------------------------------|

   Let the Handcuff....  let you be..chaperone...halfway home
                                             (at the)
   G                     F#          F     E     D
G|-------------5/7-----|--------------------------------------|
D|-----------3-----7-5-|-----4-----------1-2-3-4---4--5--6--7-|
A|---2--3--5-----------|---4---4-2---3-4---------5------------|
E|-3-------------------|-2---------4--------------------------|


  I'm a full grown man but I'm not afraid to cry
                              A      A#     (B)
G|------------------------------------------|
D|-------3---------4--5--6---7--7----8--8---|
A|--5---------5-----------------------------| Back to Verse Like
E|------------------------------------------|

   Verse 2 Bass Line
   B         G#                         A         F#
G|--------------------------------------|----------------------|
D|*------------4h6p4h6p4h6p4h6p4h6p4---*|----7-----------------|
A|*22-22-2-2-2-----------------------6*|----------------------|
E|--------------------------------------|-5-5--5-5--2-2-2-2-222|
       (repeat this part 3 times                         Pickup/
   B                   G#
G|----4---4---4-----------|------------------------|
D|-----------------6--6-6-|----7----7---7----------|
A|-222-222-222------------|------------------------|
E|--------------444-44-4--|-555--555--55--22222222-|

Bass Fill 1
G|-----------------|
D|---------5-------|
A|-2-4-5-7---7-5-3-|
E|-----------------|

Intro       (Verse 1 Bassline) x1
Verse 1     (Verse 1 Bassline) x2   
Chorus      (Chorus Bassline) x1
Post Chorus (Play Verse 1 Bassline)
Verse 2     (Verse 2 Bassline)
Chorus      (Chorus Bassline) x1
Post Chorus (Play Verse 1 Bassline) x1
Bridge      (Bass Tacit until very end then play Bass Fill 1)
Chorus      (Chorus Bassline) x1
Post Chorus (Play Verse 1 Bassline) x1
Outro       (Play Verse 1 Bassline) x2
Bango Outro (Bass Tacit)

FIN


Текст, аккорды и табулатура для песни "Sexxlaws", исполняет "Beck".
Используемые в песне аккорды можно найти в разделе Как брать аккорды. Аккорды для шестиструнной гитары. Другие песни можно найти на нашем сайте, воспользовавшись алфавитным указателем вверху страницы.


Слушать онлайн Sexx Laws


BeckSexx Laws на Яндекс.Музыке


 
Ошибка в тексте? Выделите ошибку и нажмите Ctrl+Enter