www.beatsteaks.com
This is my first tab, but theres no beatsteak tabs so i might as well try!!
Any complaints, rambles, questions,donations to [email protected]

The Beatsteaks
Summer

 ~=let ring

Intro - medium distortion
E----------------------------------------------------------------
B----------------------------------------------------------------
G------7-7-7-7-7-7-------------7-7-7-7-7-7-----------------------
D------7-7-7-7-7-7-------------7-7-7-7-7-7-----------------------
A------5-5-5-5-5-5-------------5-5-5-5-5-5-----------------------
E----------------------------------------------------------------

Verse 1 - medium distortion
E----------------------------------------------------------------
B----------------------------------------------------------------
G------7-7-7-7-7-7-------------7-7-7-7-7-7-----------------------
D------7-7-7-7-7-7-------------7-7-7-7-7-7-----------------------
A------5-5-5-5-5-5-------------5-5-5-5-5-5-----------------------
E----------------------------------------------------------------

Pre-chorus - heavy distortion
E----------------------------------------------------------------
B----------------------------------------------------------------
G------7-7-7-7-7-7-x-x-x-x-7-7-7-7-7-7-x-x-x-x-------------------
D------7-7-7-7-7-7-x-x-x-x-7-7-7-7-7-7-x-x-x-x-------------------
A------5-5-5-5-5-5-x-x-x-x-5-5-5-5-5-5-x-x-x-x-------------------
E----------------------------------------------------------------

Verse 2 - heavy distortion
E----------------------------------------------------------------
B----------------------------------------------------------------
G------7-7-7-7-7-7-------------7-7-7-7-7-7-----------------------
D------7-7-7-7-7-7-------------7-7-7-7-7-7-----------------------
A------5-5-5-5-5-5-------------5-5-5-5-5-5-----------------------
E------0-0-0-0-0-0-------------0-0-0-0-0-0-----------------------

Chorus 1(part 1) - heavy distortion
E----------------------------------------------------------------
B----------------------------------------------------------------
G-7-7-7-7-9-9-9-9-----------------6-6-6-6-7-7-7-7----------------
D-7-7-7-7-9-9-9-9-5-5-5-5-5-5-5-5-6-6-6-6-7-7-7-7-7-7-7-7-7-7-7-7
A-5-5-5-5-7-7-7-7-5-5-5-5-5-5-5-5-4-4-4-4-5-5-5-5-7-7-7-7-7-7-7-7
E-----------------3-3-3-3-3-3-3-3-----------------5-5-5-5-5-5-5-5

(part 2)
E----------------------------------------------------------------
B----------------------------------------------------------------
G------7-7-7-7-7-7-x-x-x-x-7-7-7-7-7-7-x-x-x-x-------------------
D------7-7-7-7-7-7-x-x-x-x-7-7-7-7-7-7-x-x-x-x-------------------
A------5-5-5-5-5-5-x-x-x-x-5-5-5-5-5-5-x-x-x-x-------------------
E----------------------------------------------------------------

Verse 3 - heavy distortion
E----------------------------------------------------------------
B----------------------------------------------------------------
G----------------------------------------------------------------
D------3-3-3-3-3-3-------------3-3-3-3-3-3-----------------------
A------3-3-3-3-3-3-------------3-3-3-3-3-3-----------------------
E------1-1-1-1-1-1-------------1-1-1-1-1-1-----------------------

Chorus 2 (part 1) - heavy distortion
E----------------------------------------------------------------
B----------------------------------------------------------------
G-7-7-7-7-9-9-9-9-----------------6-6-6-6-7-7-7-7----------------
D-7-7-7-7-9-9-9-9-5-5-5-5-5-5-5-5-6-6-6-6-7-7-7-7-7-7-7-7-7-7-7-7
A-5-5-5-5-7-7-7-7-5-5-5-5-5-5-5-5-4-4-4-4-5-5-5-5-7-7-7-7-7-7-7-7
E-----------------3-3-3-3-3-3-3-3-----------------5-5-5-5-5-5-5-5

(part 2)
E----------------------------------------------------------------
B----------------------------------------------------------------
G------7-7-7-6-7-6-----7-7-7-6-7-6-------------------------------
D------7-7-7-------7---7-7-7-------7-----------------------------
A------5-5-5---------7-5-5-5---------7---------------------------
E----------------------------------------------------------------

Chorus 3 (part 1) - heavy distortion
E----------------------------------------------------------------
B----------------------------------------------------------------
G-7-7-7-7-9-9-9-9-----------------6-6-6-6-7-7-7-7----------------
D-7-7-7-7-9-9-9-9-5-5-5-5-5-5-5-5-6-6-6-6-7-7-7-7-7-7-7-7-7-7-7-7
A-5-5-5-5-7-7-7-7-5-5-5-5-5-5-5-5-4-4-4-4-5-5-5-5-7-7-7-7-7-7-7-7
E-----------------3-3-3-3-3-3-3-3-----------------5-5-5-5-5-5-5-5

(part 2)
E----------------------------------------------------------------
B----------------------------------------------------------------
G------7-7-7-7-9-9-9-9-10-10-10-10-7-6---------------------------
D------7-7-7-7-9-9-9-9-10-10-10-10-7-6---------------------------
A------5-5-5-5-7-7-7-7--8--8--8--8-5-4---------------------------
E----------------------------------------------------------------

End  
E----------------------------------------------------------------
B----------------------------------------------------------------
G-7-7-7-7-7-7~---------------------------------------------------
D-7-7-7-7-7-7~---------------------------------------------------
A-5-5-5-5-5-5~---------------------------------------------------
E-0-0-0-0-0-0~---------------------------------------------------

Song order
----------
Intro           x2
Verse1          x4
Pre-chorus      x2
Verse2          x4
Chorus1 (part1) x1
Chorus1 (part2) x2
Verse3          x4
Chorus2 (part1) x1
Chorus2 (part2) x4
Verse 1         x4
Chorus3 (part1) x1
Chorus3 (part2) x4
Pre-chorus      x1 
End             x1 

Thanks Charles Knoery


Текст, аккорды и табулатура для песни "Summer", исполняет "Beatsteaks".
Используемые в песне аккорды можно найти в разделе Как брать аккорды. Аккорды для шестиструнной гитары. Другие песни можно найти на нашем сайте, воспользовавшись алфавитным указателем вверху страницы.


 
Ошибка в тексте? Выделите ошибку и нажмите Ctrl+Enter