-------------------------------------------------------------------------
  THE BEATLES - THERE'S A PLACE (McCartney/Lennon) From PLEASE, PLEASE ME
                album. Released 22nd March 1963.
-------------------------------------------------------------------------
  Tabbed by:PJVillanueva



There, there's a place
where I can go
when I feel low
when I feel blue
And it's my mind
and there's no time
When I'm alone
I think of you
the things you do
Go round my head
the things you've said
Like I love only you
In my mind there's no sorrow
Don't you know that it's so
There'll be no sad tomorrow
Don't you know that it's so
There, there's a place
where I can go
when I feel low
when I feel blue
And it's my mind
and there's time. When I'm alone
There's a place
There's a place



                          B       E
e|------- ------- ------- -------|------- ------- ------- -------|
B|-------------------------------|-------------------------------|
G|-------------------------------|-------------------------------|
D|-------------------------------|2-------2---2-------2---2------|
A|-------------------------------|2-------2---2-------2---2------|
E|------------------------7------|0-------0---0-------0---0------|


          A                       E
e|------- ------- ------- -------|------- ------- ------- -------|
B|-------------------------------|-------------------------------|
G|-------------------------------|-------------------------------|
D|--------7-----------7---7------|2-------2---2-------2---2------|
A|--------7-----------7---7------|2-------2---2-------2---2------|
E|--------5-----------5---5------|0-------0---0-------0---0------|


  A                
e|------- ------- ------- -------|------- ------- ------- -------|
B|-------------------------------|-------------------------------|
G|-------------------------------|-------------------------------|
D|7------------------------------|-------------------------------|
A|7------------------------------|------------4---2-------0------|
E|5------------------------------|-------------------------------|
                  There                           there's a


  E                               A
e|0------ 0------ 0------ 0------|--0---- 0------ 0------ 0------|
B|0-------0-------0-------0------|-2------2-------2-------2------|
G|1-------1-------1-------1------|2-------2-------2-------2------|
D|2-------2-------2-------2------2--------2-------2-------2------|
A|2-------2-------2-------2-----0|--------0-------0-------0------|
E|0-------0-------0-------0------|-------------------------------|
  place                                       where I     can
e|------- ------- ------- -------|------- ------- ------- -------|
B|-------------------------------|-------------------------------|
G|-------------------------------|-------------------------------|
D|2-----------2---2--------------|7-----------7---7--------------|
A|2-----------2---2--------------|7-----------7---7--------------|
E|4-----------0---0--------------|5-----------5---5--------------|




  E                               A
e|0------ 0------ 0------ 0------|--0---- 0------ 0------ 0------|
B|0-------0-------0-------0------|-2------2-------2-------2------|
G|1-------1-------1-------1------|2-------2-------2-------2------|
D|2-------2-------2-------2------2--------2-------2-------2------|
A|2-------2-------2-------2-----0|--------0-------0-------0------|
E|0-------0-------0-------0------|-------------------------------|
  go                                          when I      feel
e|------- ------- ------- -------|------- ------- ------- -------|
B|-------------------------------|-------------------------------|
G|-------------------------------|-------------------------------|
D|2-----------2---2--------------|7-----------7---7--------------|
A|2-----------2---2--------------|7-----------7---7--------------|
E|0-----------0---0--------------|5-----------5---5--------------|



  E                               Dbm
e|0------ 0------ 0------ 0---0--|4------ 4------ 4------ 4------|
B|0-------0-------0-------0---0--|5-------5-------5-------5------|
G|1-------1-------1-------1---1--|6-------6-------6-------6------|
D|2-------2-------2-------2---2--|6-------6-------6-------6------|
A|2-------2-------2-------2---2--|4-------4-------4-------4------|
E|0-------0-------0-------0---0--|-------------------------------|
  low                                         when I      feel
e|------- ------- ------- -------|------- ------- ------- -------|
B|-------------------------------|-------------------------------|
G|-------------------------------|6-----------6---6--------------|
D|2-----------2---2--------------|6-----------6---6--------------|
A|2-----------2---2--------------|4-----------4---4--------------|
E|0-----------0---0--------------|-------------------------------|




  B
e|2------ 2---2-- 2------ 2---2--|----2-- 2---2-- 2------ 2---2--|
B|4-------4---4---4-------4---4--|----4---4---4---4-------4---4--|
G|4-------4---4---4-------4---4--|----4---4---4---4-------4---4--|
D|4-------4---4---4-------4---4--|----4---4---4---4-------4---4--|
A|2-------2---2---2-------2---2--|----2---2---2---2-------2---2--|
E|-------------------------------|-------------------------------|
  blue                                            And it's    my
e|------- ------- ------- -------|------- ------- ------- -------|
B|-------------------------------|-------------------------------|
G|-------------------------------|-------------------------------|
D|9-----------9---9--------------|9-----------9---9-----9-----9--|
A|9-----------9---9--------------|9-----------9---9-----9-----9--|
E|7-----------7---7--------------|7-----------7---7-----7-----7--|



  Abm                             A
e|4------ 4---4-- 4------ 4------|0------ 0---0-- 0------ 0------|
B|4-------4---4---4-------4------|2-------2---2---2-------2------|
G|4-------4---4---4-------4------|2-------2---2---2-------2------|
D|6-------6---6---6-------6------|2-------2---2---2-------2------|
A|6-------6---6---6-------6------|0-------0---0---0-------0------|
E|4-------4---4---4-------4------|-------------------------------|
  mind                                            And there's no
e|------- ------- ------- -------|------- ------- ------- -------|
B|-------------------------------|-------------------------------|
G|-------------------------------|-------------------------------|
D|6-----------6---6--------------|7-----------7---7--------------|
A|6-----------6---6--------------|7-----------7---7--------------|
E|4-----------4---4--------------|5-----------5---5--------------|



  E                               A               F#m     
e|0------ 0---0-- 0------ 0------|0------ 0------ 2------ ----2--|
B|0-------0---0---0-------0------|2-------2-------2-----------2--|
G|1-------1---1---1-------1------|2-------2-------2-----------2--|
D|2-------2---2---2-------2------|2-------2-------4-----------4--|   
A|2-------2---2---2-------2------|0-------0-------4-----------4--|
E|0-------0---0---0-------0------|----------------2-----------2--|
  time                                        when I'm    a.....
e|------- ------- ------- -------|------- ------- ------- -------|
B|-------------------------------|-------------------------------|
G|-------------------------------|-------------------------------|
D|2-----------2---2--------------|7-----------7---4-----------4--|
A|2-----------2---2--------------|7-----------7---4-----------4--|
E|0-----------0---0--------------|5-----------5---2-----------2--|



  Dbm
e|4------ 4---4-- ----4-- 4------|
B|5-------5---5-------5---5------|
G|6-------6---6-------6---6------|
D|6-------6---6-------6---6------|
A|4-------4---4-------4---4------|
E|-------------------------------|
  lone
e|------- ------- ------- -------|
B|-------------------------------|
G|6-----------6-----------6------|
D|6-----------6-----------6------|
A|4-----------4-----------4------|
E|-------------------------------|




e|4------ ------- ------- -------|------- ------- ------- -------|
B|5------------------------------|-------------------------------|
G|6------------------------------|-------------------------------|
D|6------------------------------|-------------------------------|
A|4------------------------------|-------------------------------|
E|-------------------------------|-------------------------------|
                  I                               think   of         
e|------- ------- ------- -------|------- ------- ------- -------|
B|-------------------------------|-------------------------------|
G|6------------------------------|-------------------------------|
D|6------------------------------|-------------------------------|
A|4------------------------------|------------4---2-------0------|
E|-------------------------------|-------------------------------|



  E                               A
e|0------ 0------ 0------ 0------|--0---- 0------ 0------ 0------|
B|0-------0-------0-------0------|-2------2-------2-------2------|
G|1-------1-------1-------1------|2-------2-------2-------2------|
D|2-------2-------2-------2------2--------2-------2-------2------|
A|2-------2-------2-------2-----0|--------0-------0-------0------|
E|0-------0-------0-------0------|-------------------------------|
  you                                         the things  you 
e|------- ------- ------- -------|------- ------- ------- -------|
B|-------------------------------|-------------------------------|
G|-------------------------------|-------------------------------|
D|2-----------2---2--------------|7------------------------------|
A|2-----------2---2--------------|7-----------4---2-------0------|
E|4-----------0---0--------------|5------------------------------|



  E                               A
e|0------ 0------ 0------ 0------|--0---- 0------ 0------ 0------|
B|0-------0-------0-------0------|-2------2-------2-------2------|
G|1-------1-------1-------1------|2-------2-------2-------2------|
D|2-------2-------2-------2------2--------2-------2-------2------|
A|2-------2-------2-------2-----0|--------0-------0-------0------|
E|0-------0-------0-------0------|-------------------------------|
  do                                          go  round   my
e|------- ------- ------- -------|------- ------- ------- -------|
B|-------------------------------|-------------------------------|
G|-------------------------------|-------------------------------|
D|2-----------2---2--------------|7------------------------------|
A|2-----------2---2--------------|7-----------4---2-------0------|
E|4-----------0---0--------------|5------------------------------|



  E                               Dbm
e|0------ ----0-- 0------ 0---0--|4------ ----4-- 4-----4 ----4--|
B|0-----------0---0-------0---0--|5-----------5---5-----5-----5--|
G|1-----------1---1-------1---1--|6-----------6---6-----6-----6--|
D|2-----------2---2-------2---2--|6-----------6---6-----6-----6--|
A|2-----------2---2-------2---2--|4-----------4---4-----4-----6--|
E|0-----------0---0-------0---0--|-------------------------------|
  head                                         the things you've
e|------- ------- ------- -------|------- ------- ------- -------|
B|-------------------------------|-------------------------------|
G|-------------------------------|6-----------6---6--------------|
D|2-----------2---2--------------|6-----------6---6--------------|
A|2-----------2---2--------------|4-----------4---4--------------|
E|4-----------0---0--------------|-------------------------------|



  B
e|2------ ----2-- 2------ 2---2--|------- 2---2-- ------- 2------|
B|4-----------4---4-------4---4--|--------4---4-----------4------|
G|4-----------4---4-------4---4--|--------4---4-----------4------|
D|4-----------4---4-------4---4--|--------4---4-----------4------|
A|2-----------2---2-------2---2--|--------2---2-----------2------|
E|-------------------------------|-------------------------------|
  said                                            Like    I
e|------- ------- ------- -------|------- ------- ------- -------|
B|-------------------------------|-------------------------------|
G|-------------------------------|-------------------------------|
D|9-----------9---9--------------|9-----------9---9--------------|
A|9-----------9---9--------------|9-----------9---9--------------|
E|7-----------7---7--------------|7-----------7---7--------------|



  A
e|0------ 0---0-- 0------ 0------|0------ 0---0-- 0------ 0------|
B|2-------2---2---2-------2------|2-------2---2---2-------2------|
G|2-------2---2---2-------2------|2-------2---2---2-------2------|
D|2-------2---2---2-------2------|2-------2---2---2-------2------|
A|0-------0---0---0-------0------|0-------0---0---0-------0------|
E|-------------------------------|-------------------------------|
  love                                            only
e|------- ------- ------- -------|------- ------- ------- -------|
B|-------------------------------|-------------------------------|
G|-------------------------------|-------------------------------|
D|7-----------7---7--------------|7-----------7---7--------------|
A|7-----------7---7--------------|7-----------7---7--------------|
E|5-----------5---5--------------|5-----------5---5--------------|



  B
e|2------ 2---2-- 2------ 2------|2-----2 2---2-- ----2-- 2------|
B|4-------4---4---4-------4------|4-----4-4---4-------4---4------|
G|4-------4---4---4-------4------|4-----4-4---4-------4---4------|
D|4-------4---4---4-------4------|4-----4-4---4-------4---4------|
A|2-------2---2---2-------2------|2-----2-2---2-------2---2------|
E|-------------------------------|-------------------------------|
  you
e|------- ------- ------- -------|------- ------- ------- -------|
B|-------------------------------|-------------------------------|
G|-------------------------------|-------------------------------|
D|9-----------9---9--------------|9-------9-------9-------9------|
A|9-----------9---9--------------|9-------9-------9-------9------|
E|7-----------7---7--------------|7-------7-------7-------7------|



  Dbm                             F#
e|4---4-- ----4-- 4------ -------|2------ 2---2-- ----2-- 2---2--|
B|5---5-------5---5--------------|2-------2---2-------2---2---2--|
G|6---6-------6---6--------------|3-------3---3-------3---3---3--|
D|6---6-------6---6--------------|4-------4---4-------4---4---4--|
A|4---4-------4---4--------------|4-------4---4-------4---4---4--|
E|-------------------------------|2-------2---2-------2---2---2--|
          In  my  mind    there's no sorrow
e|4------ ------- ------- -------|------- ------- ------- -------|
B|5------------------------------|-------------------------------|
G|6------------------------------|--------3---3-------3---3------|
D|6------------------------------|--------4---4-------4---4------|
A|4------------------------------|--------4---4-------4---4------|
E|-------------------------------|--------2---2-------2---2------| 



  E                               Ab
e|0------ ----0-- 0------ ----0--|4------ 4---4-- 4------ 4------|
B|0-----------0---0-----------0--|4-------4---4---4-------4------|
G|1-----------1---1-----------1--|5-------5---5---5-------5------|
D|2-----------2---2-----------2--|6-------6---6---6-------6------|
A|2-----------2---2-----------2--|6-------6---6---6-------6------|
E|0-----------0---0-----------0--|4-------4---4---4-------4------|
          Don't you know  that it's so
e|------- ------- ------- -------|------- ------- ------- -------|
B|-------------------------------|-------------------------------|
G|1------------------------------|------------5---5-------5------|
D|2------------------------------|------------6---6-------6------|
A|2------------------------------|------------6---6-------6------|
E|0------------------------------|------------4---4-------4------|



  Dbm                             F#
e|4------ 4------ 4------ 4------|2------ 2---2-- ------- 2---2--|
B|5-------5-------5-------5------|2-------2---2-----------2---2--|
G|6-------6-------6-------6------|3-------3---3-----------3---3--|
D|6-------6-------6-------6------|4-------4---4-----------4---4--|
A|4-------4-------4-------4------|4-------4---4-----------4---4--|
E|-------------------------------|2-------2---2-----------2---2--|
          There'll be no sad  tomorrow
e|4------ ------- ------- -------|------- ------- ------- -------|
B|5------------------------------|-------------------------------|
G|6------------------------------|--------3---3-----------3------|
D|6------------------------------|--------4---4-----------4------|
A|4------------------------------|--------4---4-----------4------|
E|-------------------------------|--------2---2-----------2------|



  E                               Ab
e|0------ ----0-- 0------ 0------|4------ ----4-- 4------ 4------|
B|0-----------0---0-------0------|4-----------4---4-------4------|
G|1-----------1---1-------1------|5-----------5---5-------5------|
D|2-----------2---2-------2------|6-----------6---6-------6------|
A|2-----------2---2-------2------|6-----------6---6-------6------|
E|0-----------0---0-------0------|4-----------4---4-------4------|  
          Don't you know  that it's so
e|0------ ------- ------- -------|------- ------- ------- -------|
B|0------------------------------|-------------------------------|
G|1------------------------------|--------5---5-----------5------|
D|2------------------------------|--------6---6-----------6------|
A|2------------------------------|--------6---6-----------6------|
E|0------------------------------|--------4---4-----------4------|



  Dbm
e|4------ ------- ------- -------|------- ------- ------- -------|
B|5------------------------------|-------------------------------|
G|6------------------------------|-------------------------------|
D|6------------------------------|-------------------------------|
A|4------------------------------|-------------------------------|
E|-------------------------------|-------------------------------|
                  There                           there's a
e|------- ------- ------- -------|------- ------- ------- -------|
B|-------------------------------|-------------------------------|
G|6------------------------------|-------------------------------|
D|6------------------------------|-------------------------------|
A|4------------------------------|------------4---2-------0------|
E|-------------------------------|-------------------------------|


  E                               A
e|0------ 0------ 0------ 0------|0------ 0------ 0------ 0------|
B|0-------0-------0-------0------|2-------2-------2-------2------|
G|1-------1-------1-------1------|2-------2-------2-------2------|
D|2-------2-------2-------2------|2-------2-------2-------2------|
A|2-------2-------2-------2------|0-------0-------0-------0------|
E|0-------0-------0-------0------|-------------------------------|
  place                                       where I     can
e|------- ------- ------- -------|------- ------- ------- -------|
B|-------------------------------|-------------------------------|
G|-------------------------------|-------------------------------|
D|2-----------2---2--------------|7-----------7---7--------------|
A|2-----------2---2--------------|7-----------7---7--------------|
E|4-----------0---0--------------|5-----------5---5--------------|



  E                               A
e|0------ 0------ 0------ 0------|0------ 0------ 0------ 0------|
B|0-------0-------0-------0------|2-------2-------2-------2------|
G|1-------1-------1-------1------|2-------2-------2-------2------|
D|2-------2-------2-------2------|2-------2-------2-------2------|
A|2-------2-------2-------2------|0-------0-------0-------0------|
E|0-------0-------0-------0------|-------------------------------|
  go                                          when I      feel
e|------- ------- ------- -------|------- ------- ------- -------|
B|-------------------------------|-------------------------------|
G|-------------------------------|-------------------------------|
D|2-----------2---2-----------2--|7-----------7---7--------------|
A|2-----------2---2-----------2--|7-----------7---7--------------|
E|0-----------0---0-----------0--|5-----------5---5--------------|



  E                               Dbm
e|0------ 0------ 0------ 0---0--|4------ 4------ 4------ 4------|
B|0-------0-------0-------0---0--|5-------5-------5-------5------|
G|1-------1-------1-------1---1--|6-------6-------6-------6------|
D|2-------2-------2-------2---2--|6-------6-------6-------6------|
A|2-------2-------2-------2---2--|4-------4-------4-------4------|
E|0-------0-------0-------0---0--|-------------------------------|
  low                                         when I      feel
e|------- ------- ------- -------|------- ------- ------- -------|
B|-------------------------------|-------------------------------|
G|-------------------------------|6-----------6---6--------------|
D|2-----------2---2-----------2--|6-----------6---6--------------|
A|2-----------2---2-----------2--|4-----------4---4--------------|
E|0-----------0---0-----------0--|-------------------------------|




  B
e|2------ 2---2-- 2------ 2---2--|----2-- 2---2-- 2-----2 ----2--|
B|4-------4---4---4-------4---4--|----4---4---4---4-----4-----4--|
G|4-------4---4---4-------4---4--|----4---4---4---4-----4-----4--|
D|4-------4---4---4-------4---4--|----4---4---4---4-----4-----4--|
A|2-------2---2---2-------2---2--|----2---2---2---2-----2-----2--|
E|-------------------------------|-------------------------------|
  blue                                            And it's    my
e|------- ------- ------- -------|------- ------- ------- -------|
B|-------------------------------|-------------------------------|
G|-------------------------------|-------------------------------|
D|9-----------9---9--------------|9-----------9---9-----9-----9--|
A|9-----------9---9--------------|9-----------9---9-----9-----9--|
E|7-----------7---7--------------|7-----------7---7-----7-----7--|




  Abm                             A
e|4------ 4---4-- 4------ 4------|0------ 0---0-- 0------ 0------|
B|4-------4---4---4-------4------|2-------2---2---2-------2------|
G|4-------4---4---4-------4------|2-------2---2---2-------2------|
D|6-------6---6---6-------6------|2-------2---2---2-------2------|
A|6-------6---6---6-------6------|0-------0---0---0-------0------|
E|4-------4---4---4-------4------|-------------------------------|
  mind                                            And there's no
e|------- ------- ------- -------|------- ------- ------- -------|
B|-------------------------------|-------------------------------|
G|-------------------------------|-------------------------------|
D|6-----------6---6--------------|7-------7---7---7--------------|
A|6-----------6---6--------------|7-------7---7---7--------------|
E|4-----------4---4--------------|5-------5---5---5--------------|




  E                               A               F#m     
e|0------ 0---0-- 0------ 0------|0------ 0------ 2------ ----2--|
B|0-------0---0---0-------0------|2-------2-------2-----------2--|
G|1-------1---1---1-------1------|2-------2-------2-----------2--|
D|2-------2---2---2-------2------|2-------2-------4-----------4--|   
A|2-------2---2---2-------2------|0-------0-------4-----------4--|
E|0-------0---0---0-------0------|----------------2-----------2--|
  time                                        when I'm    a.....
e|------- ------- ------- -------|------- ------- ------- -------|
B|-------------------------------|-------------------------------|
G|-------------------------------|-------------------------------|
D|2-----------2---2--------------|7-----------7---4--------------|
A|2-----------2---2--------------|7-----------7---4--------------|
E|0-----------0---0--------------|5-----------5---2--------------|



  Dbm
e|4------ 4---4-- ----4-- 4------|4------ ------- ------- -------|
B|5-------5---5-------5---5------|5------------------------------|
G|6-------6---6-------6---6------|6------------------------------|
D|6-------6---6-------6---6------|6------------------------------|
A|4-------4---4-------4---4------|4------------------------------|
E|-------------------------------|-------------------------------|
lone                                            There's a
e|------- ------- ------- -------|------- ------- ------- -------|
B|-------------------------------|-------------------------------|
G|6-----------6-----------6------|6------------------------------|
D|6-----------6-----------6------|4------------------------------|
A|4-----------4-----------4------|4------------------------------|
E|-------------------------------|-------------------------------|



  E                               A
e|0------ 0------ 0------ 0------|0------ 0------ 0------ 0------|
B|0-------0-------0-------0------|2-------2-------2-------2------|
G|1-------1-------1-------1------|2-------2-------2-------2------|
D|2-------2-------2-------2------|2-------2-------2-------2------|
A|2-------2-------2-------2------|0-------0-------0-------0------|
E|0-------0-------0-------0------|-------------------------------|
  place                                           There's a
e|------- ------- ------- -------|------- ------- ------- -------|
B|-------------------------------|-------------------------------|
G|-------------------------------|-------------------------------|
D|2-----------2---2--------------|7-----------7---7--------------|
A|2-----------2---2--------------|7-----------7---7--------------|
E|0-----------0---0--------------|5-----------5---5--------------|



  E                               A
e|0------ 0------ 0------ 0------|0------ 0------ 0------ 0------|
B|0-------0-------0-------0------|2-------2-------2-------2------|
G|1-------1-------1-------1------|2-------2-------2-------2------|
D|2-------2-------2-------2------|2-------2-------2-------2------|
A|2-------2-------2-------2------|0-------0-------0-------0------|
E|0-------0-------0-------0------|-------------------------------|
  place                                           There's a
e|------- ------- ------- -------|------- ------- ------- -------|
B|-------------------------------|-------------------------------|
G|-------------------------------|-------------------------------|
D|2-----------2---2--------------|7-----------7---7--------------|
A|2-----------2---2--------------|7-----------7---7--------------|
E|0-----------0---0--------------|5-----------5---5--------------|
  .............................Fade..............................

  E                               A
e|0------ 0------ 0------ 0------|0------ 0------ 0------ 0------|
B|0-------0-------0-------0------|2-------2-------2-------2------|
G|1-------1-------1-------1------|2-------2-------2-------2------|
D|2-------2-------2-------2------|2-------2-------2-------2------|
A|2-------2-------2-------2------|0-------0-------0-------0------|
E|0-------0-------0-------0------|-------------------------------|
  place                                           There's a
e|------- ------- ------- -------|------- ------- ------- -------|
B|-------------------------------|-------------------------------|
G|-------------------------------|-------------------------------|
D|2-----------2---2-----2-----2--|7-----------7---7--------------|
A|2-----------2---2-----2-----2--|7-----------7---7--------------|
E|0-----------0---0-----0-----0--|5-----------5---5--------------|
  ...............................................................


  E                               A
e|0------ 0------ 0------ 0------|0------ 0------ 0------ 0------|
B|0-------0-------0-------0------|2-------2-------2-------2------|
G|1-------1-------1-------1------|2-------2-------2-------2------|
D|2-------2-------2-------2------|2-------2-------2-------2------|
A|2-------2-------2-------2------|0-------0-------0-------0------|
E|0-------0-------0-------0------|-------------------------------|
  place                                           There's a
e|------- ------- ------- -------|------- ------- ------- -------|
B|-------------------------------|-------------------------------|
G|-------------------------------|-------------------------------|
D|2-----------2---2--------------|7-----------7---7--------------|
A|2-----------2---2--------------|7-----------7---7--------------|
E|0-----------0---0--------------|5-----------5---5--------------|
  ................


        B  Bend
        R  Release
        /  slide up
          slide down
        H  hammer-on
        P  pull-off
        ~  vibrato
        +  harmonic
        x  Mute note
        . - play note like a dot in standard notation
        ^ - ties two notes together
       (.  Pause


Текст, аккорды и табулатура для песни "Theres A Place", исполняет "Beatles".
Используемые в песне аккорды можно найти в разделе Как брать аккорды. Аккорды для шестиструнной гитары. Другие песни можно найти на нашем сайте, воспользовавшись алфавитным указателем вверху страницы.


 
Ошибка в тексте? Выделите ошибку и нажмите Ctrl+Enter