Something
George Harrison

#-------------------------------------PLEASE NOTE---------------------------------#
#This file is the author's own work and represents their interpretation of the #
#song. You may only use this file for private study, scholarship, or research. #
#-----------------------------------------------------------------------------------------##
From: [email protected]    Don Park

Transposed for acoustic guitar.

C                                     Cmaj7   C7                                    F
Something in the way she moves attracts me like no other lover
D         D7   G
Something in the way she woos me
Am                                  G#+
I don't want to leave her now
    C/G                          D
You know I believe in how

F  Eb  G  C

Somewhere in her smile she knows, that I don't need no other lover
Something in her style that shows me, I don't want to leave her now
You know I believe in how

F  Eb  G  A

{Bridge}

A                  C#m                     F#m
You're asking me will my love grow
A          D      G             A      G#     G     F#   F ~ E
I don't know  I don't know
A              C#m                     F#m
You stick around and it may show
A        D        G            C
I don't know  I don't know


Guitar solo:
     C            Cmaj7                C7
-|----------------------------------------------------------8---8----|
-|-------8----------10--10----8---------------8--10--8—-11-----------|
-|--7/9-----9--7/9------------------9----7/9-------------------------|
-|-------------------------------------------------------------------|
-|-------------------------------------------------------------------|
-|-------------------------------------------------------------------|

               F
-|--108------12p108----------------8--8----------------------------|
-|------------------------10------10-------------------8--8----------|
-|-------------------------------------------------9-----------------|
-|-------------------------------------------------------------------|
-|-------------------------------------------------------------------|
-|-------------------------------------------------------------------|

    D                                   G
-|---------------------------------------9-8-7---12--11—10~----------|
-|---------------------------b12-b12-8-8-----------------------------|
-|----------------7--11--11------------------------------------------|
-|--7----9---7-------------------------------------------------------|
-|-------------------------------------------------------------------|
-|-------------------------------------------------------------------|

                             Am               G#+
-|----9-8-7---12--11--10---------------------------------------------|
-|-8-----------------------------------------------------------------|
-|----------------------------h7(9)-h7(9)----- h7(9)-—h7(9)----------|
-|-----------------------------------------10-----------------10-----|
-|-------------------------------------------------------------------|
-|-------------------------------------------------------------------|

    C/G                        D                  F                Eb  G   C
-|-------------------------  8/10/12--10--8-10-8-----------------------------|
-|----------------------8-10--------------------10--/13----10--11--12—----13-|
-|h7(9)—h7(9)-----7h9--------------------------------------------------------|
-|------------10-------------------------------------------------------------|
-|---------------------------------------------------------------------------|
-|---------------------------------------------------------------------------|


Something in the way she knows and all I have to do is think of her
Something in the things she shows me, I don't want to leave her now
You know I believe in how

F  Eb  G   A              F  Eb  G   C


Текст, аккорды и табулатура для песни "Something Acoustic", исполняет "Beatles".
Используемые в песне аккорды можно найти в разделе Как брать аккорды. Аккорды для шестиструнной гитары. Другие песни можно найти на нашем сайте, воспользовавшись алфавитным указателем вверху страницы.


Слушать онлайн Something


Michaël ZuritaSomething на Яндекс.Музыке


 
Ошибка в тексте? Выделите ошибку и нажмите Ctrl+Enter