------------------------------------------------------------------------


  THE BEATLES - SAVOY TRUFFLE (Harrison) From the WHITE ALBUM. Released
                on November 22nd 1968


------------------------------------------------------------------------

  Tabbed by:PJVillanueva




	

Creme tangerine and montelimat
A ginger sling with a pineapple heart
A coffee dessert  yes you know it's good news
But you'll have to have them all pulled out
After the Savoy truffle.

Cool cherry cream, nice apple tart
I feel your taste all the time we're apart
Coconut fudge  really blows down those blues
But you'll have to have them all pulled out
After the Savoy truffle.

You might not feel it now
But when the pain cuts through
You're going to know and how
The sweat is going to fill your head
When it becomes too much
You'll shout aloud
Creme tangerine.

You know that what you eat you are,
But what is sweet now, turns so sour--
We all know Obla-Di-Bla-Da
But can you show me, where you are?..

Creme tangerine and montelimat
A ginger sling with a pineapple heart
A coffee dessert--yes you know its good news
But you'll have to have them all pulled out
After the Savoy truffle.







                                                x x   x x   x x
  
e|------- ------- ------- -------|------- ------- ------- -------|
B|-------------------------------|-------------------------------|
G|-------------------------------|-------------------------------|
D|-------------------------------|-------------------------------|
A|-------------------------------|-------------------------------|
E|-------------------------------|-------------------------------|



  E
e|------- ------- ------- -------|------- ------- ------- -------|
B|-------------------------------|-------------------------------|
G|1-------1-------1---1-------1--|--------1-------1---1----------|
D|2-------2-------2---2-------2--|--------2-------2---2----------|
A|2-------2-------2---2-------2--|--------2-------2---2----------|
E|0-------0-------0---0-------0--|--------0-------0---0----------|
                                                              Cream
e|------- ------- ------- -------|------- ------- ------- -------|
B|--------3---3-------3---3------|------------------0---0-0------|
G|--------1---1-------1---1------|3--2--0-----------0---0-0------|
D|2---------------------------2--|--------2---0-2----------------|
A|-------------------------------|-------------------------------|
E|-------------------------------|-------------------------------|

e|------- ------- ------- -------|------- ------- ------- -------|
B|-------------------------------|-------------------------------|
G|-------------------------------|----------------------------9B11
D|-------------------------------|-------------------------------|
A|-------------------------------|-------------------------------|
E|-------------------------------|-------------------------------|




e|------- ------- -------|------- ------- ------- -------|
B|-----------------------|-------------------------------|
G|-----------------------|-----------------1--1-------1--|
D|-----------------------|-----------------2--2-------2--|   
A|-----------------------|-----------------2--2-------2--|
E|-----------------------|-----------------0--0-------0--|
              tangerine               and montelimat
e|------- ------- -------|------- ------- ------- -------|
B|-----------------------|-------------------------------|
G|------R-9---7----------|9------------------------------|
D|--------------------9--|-------------------------------|
A|-----------------------|-------------------------------|
E|-----------------------|-------------------------------|



                                                              F#
e|------- ------- ------- -------|------- ------- ------- -------|
B|-------------------------------|-------------------------------|
G|----------------1---1-------1--|--------1---1-------1-------3--|
D|----------------2---2-------2--|--------2---2-------2-------4--|
A|----------------2---2-------2--|--------2---2-------2-------4--|
E|----------------0---0-------0--|--------0---0-------0-------2--|

e|------- ------- ------- -------|------- ------- ------- -------|
B|--------5-------3--------------|--------3----------------------|
G|------------4------------------|------------4------------------|
D|2-------2-------0---6---5---2--|--------0-------5---6---2---3--|
A|------------2------------------|------------2------------------|
E|0-------------------4---3---0--|----------------3---4---0---1--|



                                                              A
e|------- ------- ------- -------|------- ------- ------- -------|
B|-------------------------------|-------------------------------|
G|--------3---3-------3-------3--|----3-------3-------3-------6--|
D|--------4---4-------4-------4--|----4-------4-------4-------7--|
A|--------4---4-------4-------4--|----4-------4-------4-------7--|
E|--------2---2-------2-------2--|----2-------2-------2-------5--|
              A   ginger      sling   with a pine......apple  heart
e|------- ------- ------- -------|------- ------- ------- -------|
B|--------5-------7---5----------|--------7---5------------------|
G|------------6-----------2------|-------------------------------|
D|4-------2-------4---2----------|4-------4---2---4---5---6---7--|
A|------------4-----------0------|-------------------------------|
E|2------------------------------|2---------------2---3---4---5--|




e|------- ------- ------- -------|------- ------- ------- -------|
B|-------------------------------|-------------------------------|
G|--------6-----------6-------6--|--------6---6-------6-------4--|
D|--------7-----------7-------7--|--------7---7-------7-------5--|
A|--------7-----------7-------7--|--------7---7-------7-------5--|
E|--------5-----------5-------5--|--------5---5-------5-------3--|

e|------- ------- ------- -------|------- 3------ ------- -------|
B|--------7---5------------------|------------5------------------|
G|----------------5---6-------2--|--------0-------5---6----------|
D|--------4---2-----------2------|------------2-----------7---6--|
A|----------------3---4-------0--|----------------3---4----------|
E|------------------------0------|------------------------5---4--|



              G                                               B
e|------- ------- ------- -------|------- ------- ------- -------|
B|-------------------------------|-------------------------------|
G|------------4-------4-------4--|----4-------4-------4-----/-8--|
D|------------5-------5-------5--|----5-------5-------5-----/-9--|
A|------------5-------5-------5--|----5-------5-------5-----/-9--|
E|------------3-------3-------3--|----3-------3-------3-----/-7--|
              A   coffee  dessert     yes you know   it's good news
e|------- ------- ------- -------|------- ------- ------- -------|
B|-------------------------------|-------------------------------|
G|----------------4---5---6---7--|-------------------------------|
D|5------------------------------|----------------5---7---8---9--|
A|----------------2---3---4---5--|-------------------------------|
E|3------------------------------|----------------3---5---6---7--|




e|------- ------- ------- -------|------- ------- ------- -------|
B|-------------------------------|-------------------------------|
G|----8-------8-------8-------8--|--------8-------8---8----------|
D|----9-------9-------9-------9--|--------9-------9---9----------|
A|----9-------9-------9-------9--|--------9-------9---9----------|
E|----7-------7-------7-------7--|--------7-------7---7----------|
                                                          But you'll
e|------- ------- ------- -------|------- ------- ------- -------|
B|-------10-------12-----10------|-----------10----------12------|
G|-----------11------11----------|-------------------------------|
D|--------7--------9------7---9--|------------7-----------9------|
A|------------9-------9----------|-------------------------------|
E|----------------------------7--|-------------------------------|
 


          Em              Em+5            Em6             Em+5
e|------- ------- ------- -------|------- ------- ------- -------|
B|--------8---------------8------|--------8---------------8------|
G|--------9---------------9------|--------9---------------9------|
D|--------9--------------10------|-------11--------------10------|
A|--------7---------------7------|--------7---------------7------|
E|-------------------------------|-------------------------------|
  have to have them all pulled out    after   the Savoy       truffle.
e|------- ------- ------- -------|------- ------- ------- -------|
B|-------------------------------|-------------------------------|
G|-------------------------------|-------------------------------|
D|2---2-----------2---2----------|2---2-----------2---2----------|
A|-------------------------------|-------------------------------|
E|0---0-----------0---0----------|0---0-----------0---0----------|



          C                       G5
e|------- ------- ------- 8-----|------- ------- ------- -------|
B|--------8---------------8-----|-------------------------------|
G|--------9---------------9-----|-------------------------------|
D|-------10--------------10-----|5---5---5---5------------------|
A|-------10--------------10-----|5---5---5---5------------------|
E|--------8---------------8-----|3---3---3---3------------------|

e|------- ------- ------- -------|------- ------- ------- -------|
B|-------------------------------|0---0---0---0------------------|
G|-------------------------------|0---0---0---0------------------|
D10------------------------------|--------0----------------------|
A|-------------------------------|----2--------------------------|
E|8------------------------------|3------------------------------|



  E                                                            
e|------- ------- ------- -------|------- ------- ------- -------|
B|-------------------------------|-------------------------------|
G|1-------1-------1---1-------1--|----1-------1-------1----------|
D|2-------2-------2---2-------2--|----2-------2-------2----------|
A|2-------2-------2---2-------2--|----2-------2-------2----------|
E|0-------0-------0---0-------0--|----0-------0-------0----------|
                                                              Cool
e|------- ------- ------- ------5/6---5-- ------- ------- -------|
B|--------3---3-------3---3------|--------8---5------------------|
G|--------1---1-------1---1-----7|----------------7---4----------|
D|2------------------------------|------------------------7---5--|
A|-------------------------------|-------------------------------|
E|-------------------------------|-------------------------------|

e|------- ------- ------- -------|------- ------- ------- -------|
B|-------------------------------|-------------------------------|
G|-------------------------------|----------------------------9B11
D|-------------------------------|-------------------------------|
A|-------------------------------|-------------------------------|
E|-------------------------------|-------------------------------|




e|------- ------- -------|------- ------- ------- -------|
B|-----------------------|-------------------------------|
G|-----------------------|----------------1---1-------1--|
D|-----------------------|----------------2---2-------2--|   ritmo
A|-----------------------|----------------2---2-------2--|
E|-----------------------|----------------0---0-------0--|
              cherry      cream,          nice apple  tart
e|------- ------- -------|------- ------- ------- -------|
B|-----------------------|-------------------------------|
G|------R-9---7----------|9------------------------------|
D|--------------------9--|-------------------------------|
A|-----------------------|-------------------------------|
E|-----------------------|-------------------------------|



                                                              F#
e|------- ------- ------- -------|------- ------- ------- -------|
B|-------------------------------|-------------------------------|
G|--------1-------1---1-------1--|------------1-------1-------3--|
D|--------2-------2---2-------2--|------------2-------2-------4--|
A|--------2-------2---2-------2--|------------2-------2-------4--|
E|--------0-------0---0-------0--|------------0-------0-------2--|

e|------- ------- ------- -------|------- ------- ------- -------|
B|--------5-------3--------------|--------3----------------------|
G|------------4------------------|------------4------------------|
D|2-------2-------0---6---5---2--|--------0-------5---6---2---3--|
A|------------2------------------|------------2------------------|
E|0-------------------4---3---0--|----------------3---4---0---1--|



                                                              A
e|------- ------- ------- -------|------- ------- ------- -------|
B|-------------------------------|-------------------------------|
G|----3-------3---3---3-------3--|----3-------3-------3-------6--|
D|----4-------4---4---4-------4--|----4-------4-------4-------7--|
A|----4-------4---4---4-------4--|----4-------4-------4-------7--|
E|----2-------2---2---2-------2--|----2-------2-------2-------5--|
              I   feel your   taste   all the time    we're apart
e|------- ------- ------- -------|------- ------- ------- -------|
B|--------5-------7---5----------|--------7---5------------------|
G|------------6-----------2------|-------------------------------|
D|4-------2-------4---2----------|4-------4---2---4---5---6---7--|
A|------------4-----------0------|-------------------------------|
E|2------------------------------|2---------------2---3---4---5--|



                                                              G
e|------- ------- ------- -------|------- ------- ------- -------|
B|-------------------------------|-------------------------------|
G|--------6-------6---6---6---6--|--------6---6-------6-------4--|
D|--------7-------7---7---7---7--|--------7---7-------7-------5--|
A|--------7-------7---7---7---7--|--------7---7-------7-------5--|
E|--------5-------5---5---5---5--|--------5---5-------5-------3--|

e|------- ------- ------- -------|------- 3------ ------- -------|
B|--------7---5------------------|------------5------------------|
G|----------------5---6-------2--|--------0-------5---6----------|
D|--------4---2-----------2------|------------2-----------7---6--|
A|----------------3---4-------0--|----------------3---4----------|
E|------------------------0------|------------------------5---4--|



                                                              B
e|------- ------- ------- -------|------- ------- ------- -------|
B|-------------------------------|-------------------------------|
G|--------4---4-------4-------4--|----4-------4-------4-------8--|
D|--------5---5-------5-------5--|----5-------5-------5-------9--|
A|--------5---5-------5-------5--|----5-------5-------5-------9--|
E|--------3---3-------3-------3--|----3-------3-------3-------7--|
                  Coconut     fudge   really  blows down those blues
e|------- ------- ------- -------|------- ------- ------- -------|
B|-------------------------------|-------------------------------|
G|----------------4---5---6---7--|-------------------------------|
D|5------------------------------|----------------5---7---8---9--|
A|----------------2---3---4---5--|-------------------------------|
E|3------------------------------|----------------3---5---6---7--|




e|------- ------- ------- -------|------- ------- ------- -------|
B|-------------------------------|-------------------------------|
G|--------8-------x---8-------8--|--------8-------x---8---8-----|
D|--------9-------x---9-------9--|--------9-------x---9---9-----|
A|--------9-------x---9-------9--|--------9-------x---9---9-----|
E|--------7-------x---7-------7--|--------7-------x---7---7-----|
                                                          But you'll
e|------- ------- ------- -------|------- ------- ------- -------|
B|-------10-------12-----10------|-----------10----------12------|
G|-----------11------11----------|-------------------------------|
D|--------7--------9------7---9--|------------7-----------9------|
A|------------9-------9----------|-------------------------------|
E|----------------------------7--|-------------------------------|
 


          Em              Em+5            Em6             Em+5
e|------- ------- ------- -------|------- ------- ------- -------|
B|--------8---------------8------|--------8---------------8------|
G|--------9---------------9------|--------9---------------9------|
D|--------9--------------10------|-------11--------------10------|
A|--------7---------------7------|--------7---------------7------|
E|-------------------------------|-------------------------------|
  have to have them all pulled out   After   the  Savoy       truffle.
e|------- ------- ------- -------|------- ------- ------- -------|
B|-------------------------------|-------------------------------|
G|-------------------------------|-------------------------------|
D|2---2-----------2---2----------|2---2-----------2---2----------|
A|-------------------------------|-------------------------------|
E|0---0-----------0---0----------|0---0-----------0---0----------|

e|------- 12----- ------- 12-----|------- 12----- ------- 12-----|
B|--------15B17-----------15B17--|--------15B17-----------15B17--|
G|-------------------------------|-------------------------------|
D|-------------------------------|-------------------------------|
A|-------------------------------|-------------------------------|
E|-------------------------------|-------------------------------|



          C                       G5
e|------- 8------ ------- 8-----|------- ------- ------- -------|
B|--------8---------------8-----|-------------------------------|
G|--------9---------------9-----|-------------------------------|
D|-------10--------------10-----|5---5---5---5------------------|
A|-------10--------------10-----|5---5---5---5------------------|
E|--------8---------------8-----|3---3---3---3------------------|

e|------- ------- ------- -------|------- ------- ------- -------|
B|-------------------------------|0---0---0---0------------------|
G|-------------------------------|0---0---0---0------------------|
D10------------------------------|--------0----------------------|
A|-------------------------------|----2--------------------------|
E|8------------------------------|3------------------------------|    

e|12----- ------- ------- -------|------- ------- ------- -------|
B|15B17--------------------------|-------------------------------|
G|-------------------------------|-------------------------------|
D|-------------------------------|-------------------------------|
A|-------------------------------|-------------------------------|
E|-------------------------------|-------------------------------|



Middle eight

          Em                              A
e|------- 4------ ------- 4------|------- 5------ ------- 5------|
B|--------5---------------5------|--------5---------------5------|
G|--------6---------------6------|--------6---------------6------|
D|--------6---------------6------|--------7---------------7------|
A|--------7---------------7------|--------7---------------7------|
E|-------------------------------|--------5---------------5------|
      You might not feel it   now                     But when the
e|12----- ------- ------- -------|-9----- ------- ------- -------|
B|12-----------------------------|10-----------------------------|
G|12-----------------------------|-9-----------------------------|
D|-------------------------------|-------------------------------|
A|-------------------------------|-------------------------------|
E|-------------------------------|-------------------------------|



  A7sus4      A7                  G           B
e|5------ ----5-- ------- -------|------- ------- ------- -------|
B|5-----------5------------------|-------------------------------|
G|7-----------6------------------|4-------/---8------------------|
D|5-----------5------------------|5-------/---9------------------|
A|7-----------7------------------|5-------/---9------------------|
E|5-----------5------------------|3-------/---7------------------|
  pain cuts through You're going to know and how                The
e|10----- ----9-- ------- -------|7------ ----7-- ------- -------|
B|10---------10------------------|8-----------7------------------|
G|-9----------9------------------|7-----------8------------------|
D|-------------------------------|-------------------------------|
A|-------------------------------|-------------------------------|
E|-------------------------------|-------------------------------|

e|------- ------- ------- -------|3------ ------- ------- -------|
B|-------------------------------|3-----------7------------------|
G|7-----------6------------------|4-----------8------------------|
D|5-----------7------------------|------------9------------------|
A|-------------------------------|-------------------------------|
E|5-----------5------------------|3-----------7------------------|



          Em                              A
e|------- 4------ ------- 4------|------- 5------ ------- 5------|
B|--------5---------------5------|--------5---------------5------|
G|--------6---------------6------|--------6---------------6------|
D|--------6---------------6------|--------7---------------7------|
A|--------7---------------7------|--------7---------------7------|
E|-------------------------------|--------5---------------5------|
  sweat is going to fill your head                    When it be..
e|12----- ------- ------- -------|-9----- ------- ------- -------|
B|12-----------------------------|10-----------------------------|
G|12-----------------------------|-9-----------------------------|
D|-------------------------------|-------------------------------|
A|-------------------------------|-------------------------------|
E|-------------------------------|-------------------------------|



  A7sus4      A                   G           B
e|5------ ----5-- ------- -------|------- ------- ------- -------|
B|5-----------5------------------|-------------------------------|
G|7-----------6------------------|4-------/---8------------------|
D|5-----------5------------------|5-------/---9------------------|
A|7-----------7------------------|5-------/---9------------------|
E|5-----------5------------------|3-------/---7------------------|
  comes too  much         You'll  shout aloud
e|10----- ----9-- ------- -------|7------ ----7-- ------- -------|
B|10---------10------------------|8-----------7------------------|
G|-9----------9------------------|7-----------8------------------|
D|-------------------------------|-------------------------------|
A|-------------------------------|-------------------------------|
E|-------------------------------|-------------------------------|

e|------- ------- ------- -------|3------ ------- ------- -------|
B|-------------------------------|3-----------7------------------|
G|7-----------6------------------|4-----------8------------------|
D|5-----------7------------------|------------9------------------|
A|-------------------------------|-------------------------------|
E|5-----------5------------------|3-----------7------------------|



Solo

  E5                  E                               E7
e|------- ------- ------- -------|------- ------- ------- -------|
B|-------------------------------|--------------------3-------3--|
G|--------------------1-------1--|--------------------1-------1--|
D|2-------2-------2---2-------2--|--------------------2-------2--|
A|2-------2-------2---2-------2--|--------------------2-------2--|
E|0-------0-------0---0-------0--|--------------------0-------0--|

e|------- ------- ------- -------|------- ------- ------- -------|
B|-------------------------------|----------------9---10--11--12-|
G|9-B-11------9B11----7----------|9------------------------------|
D|-------------------------------|-------------------------------|
A|-------------------------------|-------------------------------|
E|-------------------------------|-------------------------------|



                                                              F#
e|------- ------- ------- -------|------- ------- ------- -------|
B|-------------------------------|-------------------------------|
G|--------------------1-------1--|--------1-----------1-------3--|
D|--------------------2-------2--|--------2-----------2-------4--|
A|--------------------2-------2--|--------2-----------2-------4--|
E|--------------------0-------0--|--------0-----------0-------2--|

e|------- ------- ------- -------|------- ------- ------- -------|
B|-------------------------------|-------------------------------|
G|-------------------------------|-------------------------------|
D|-------------------------------|-------------------------------|
A|-------------------------------|-------------------------------|
E|-------------------------------|-------------------------------|

e|------- ------- ------- -------|------- ------- ------- -------|
B|--------5---3------------------|----3--------------------------|
G|----------------4---2----------|------------4---2--------------|
D|--------2---0-----------5---2--|----0---------------5---2---3--|
A|----------------2---0----------|------------2---0--------------|
E|------------------------3---0--|--------------------3---0---1--|



                                                              A
e|------- ------- ------- -------|------- ------- ------- -------|
B|-------------------------------|-------------------------------|
G|3-------3-----------3-------3--|----3---3---3-------3---3---6--|
D|4-------4-----------4-------4--|----4---4---4-------4---4---7--|
A|4-------4-----------4-------4--|----4---4---4-------4---4---7--|
E|2-------2-----------2-------2--|----2---2---2-------2---2---5--|

e|------- ------- ------- -------|------- ------- ----6-- 7---8--|
B|-------------------------------|----------------------7---8---9|
G|-------------------------------|-------------------------------|
D|11R9--------11R9--------11R9---|7B8----------------------------|
A|-------------------------------|----9--------------------------|
E|-------------------------------|-------------------------------|

e|------- ------- ------- -------|------- ------- ------- -------|
B|-------------------------------|-------------------------------|
G|-------------------------------|-------------------------------|
D|4------------------------------|-------------------------------|
A|-------------------------------|-------------------------------|
E|2------------------------------|-------------------------------|




e|------- ------- ------- -------|------- ------- ------- -------|
B|-------------------------------|-------------------------------|
G|--------6-----------6-------6--|----6-------6-------6---6---6--|
D|--------7-----------7-------7--|----7-------7-------7---7---7--|
A|--------7-----------7-------7--|----7-------7-------7---7---7--|
E|--------5-----------5-------5--|----5-------5-------5---5---5--|

e|------- ------- ------- -------|------- ------- ------- -------|
B|-------------------------------|-------------------------------|
G|-------------------------------|-------------------------------|
D|-------------------------------|-------------------------------|
A|-------------------------------|-------------------------------|
E|-------------------------------|-------------------------------|

e|------- 5---3-- ------- -------|------- ------- ------- -------|
B|----------------5---3----------|------------5---3--------------|
G|--------2---0-----------5---2--|--------------------5----------|
D|----------------2---0----------|----5-------2---0-------7---6--|
A|------------------------3---0--|--------------------3----------|
E|-------------------------------|----3-------------------5---4--|



  G                                                           B
e|------- ------- ------- -------|------- ------- ------- -------|
B|-------------------------------|-------------------------------|
G|4-----------4-------4-------4--|----4-------4-------4---4-/-8--|
D|5-----------5-------5-------5--|----5-------5-------5---5-/-9--|
A|5-----------5-------5-------5--|----5-------5-------5---5-/-9--|
E|3-----------3-------3-------3--|----3-------3-------3---3-/-7--|

e|------- ------- ------- -------|------- ------- 7---9-- 10--11-|
B|----------------12--13--1413B15|--R-------------9--10---11--12-|
G|------------12-----------------|----12-------------------------|
D|-------------------------------|-------------------------------|
A|-------------------------------|-------------------------------|
E|-------------------------------|-------------------------------|

e|------- ------- ------- -------|------- ------- ------- -------|
B|-------------------------------|-------------------------------|
G|-------------------------------|-------------------------------|
D|5------------------------------|-------------------------------|
A|-------------------------------|-------------------------------|
E|3------------------------------|-------------------------------|




e|------- ------- ------- -------|------- ------- ------- -------|
B|-------------------------------|-------------------------------|
G|--------8---8-------8-------8--|----8-------8-------8---8---8--|
D|--------9---9-------9-------9--|----9-------9-------9---9---9--|
A|--------9---9-------9-------9--|----9-------9-------9---9---9--|
E|--------7---7-------7-------7--|----7-------7-------7---7---7--|
                                                          But you'll
e|------- ------- ------- -------|------- ------- ------- -------|
B|-------------------------------|------------12-----------------|
G|-------------------------------|------------15B17--------------|
D|-------------------------------|-------------------------------|
A|-------------------------------|-------------------------------|
E|-------------------------------|-------------------------------|

e|------- 7---5-- ------- -------|------- ------- ------- -------|
B|----------------7---5----------|-------------------------------|
G|--------4---2-----------7---8--|-------------------------------|
D|----------------4---2----------|9---7---8---9---4---3---2---1--|
A|------------------------5---6--|----------------------------2--|
E|-------------------------------|7---5---6---7---2---1---0------|



          Em              Em+5            Em6             Em+5
e|------- ------- ------- -------|------- ------- ------- -------|
B|--------8---------------8------|--------8---------------8------|
G|--------9---------------9------|--------9---------------9------|
D|--------9--------------10------|-------11--------------10------|
A|--------7---------------7------|--------7---------------7------|
E|-------------------------------|-------------------------------|
  have to have them all pulled out    after   the Savoy       truffle
e|------- ------- ------- -------|------- ------- ------- -------|
B|-------------------------------|-------------------------------|
G|-------------------------------|-------------------------------|
D|2---2-----------2---2----------|2---2-----------2---2----------|
A|-------------------------------|-------------------------------|
E|0---0-----------0---0----------|0---0-----------0---0----------|



          C                       G5
e|------- 8------ ------- 8-----|------- ------- ------- -------|
B|--------8---------------8-----|-------------------------------|
G|--------9---------------9-----|-------------------------------|
D|-------10--------------10-----|5---5---5---5------------------|
A|-------10--------------10-----|5---5---5---5------------------|
E|--------8---------------8-----|3---3---3---3------------------|
                                                              You
e|------- ------- ------- -------|------- ----3-- ------- -------|
B|-------------------------------|--------3----------------------|
G|-------------------------------|----4-------0------------------|
D10------------------------------|5-------0----------------------|
A|-------------------------------|----2--------------------------|
E|8------------------------------|3------------------------------|


Middle eight

          Em                              A
e|------- 4------ ------- 4------|------- 5------ ------- 5------|
B|--------5---------------5------|--------5---------------5------|
G|--------6---------------6------|--------6---------------6------|
D|--------6---------------6------|--------7---------------7------|
A|--------7---------------7------|--------7---------------7------|
E|-------------------------------|--------5---------------5------|
 know that what you eat you   are                      But what is 
e|12----- ------- ------- -------|-9----- ------- ------- -------|
B|12-----------------------------|10-----------------------------|
G|12-----------------------------|-9-----------------------------|
D|-------------------------------|-------------------------------|
A|-------------------------------|-------------------------------|
E|-------------------------------|-------------------------------|



  A7sus4      A7                  G           B
e|5------ ----5-- ------- -------|------- ------- ------- -------|
B|5-----------5------------------|-------------------------------|
G|7-----------6------------------|4-------/---8------------------|
D|5-----------5------------------|5-------/---9------------------|
A|7-----------7------------------|5-------/---9------------------|
E|5-----------5------------------|3-------/---7------------------|
  sweet       now,           turns so         sour            We
e|10----- ----9-- ------- -------|7------ ----7-- ------- -------|
B|10---------10------------------|8-----------7------------------|
G|-9----------9------------------|7-----------8------------------|
D|-------------------------------|-------------------------------|
A|-------------------------------|-------------------------------|
E|-------------------------------|-------------------------------|

e|------- ------- ------- -------|------- ------- ------- -------|
B|-------------------------------|3------------------------------|
G|7-----------6------------------|4-----------8------------------|
D|7-----------7------------------|5-----------9------------------|
A|-------------------------------|------------9------------------|
E|5-----------5------------------|3-----------7------------------|



          Em                              A
e|------- 4------ ------- 4------|------- 5------ ------- 5------|
B|--------5---------------5------|--------5---------------5------|
G|--------6---------------6------|--------6---------------6------|
D|--------6---------------6------|--------7---------------7------|
A|--------7---------------7------|--------7---------------7------|
E|-------------------------------|--------5---------------5------|
  all know Obla - Di-Bla   -  Da                      But can you
e|12----- ------- ------- -------|-9----- ------- ------- -------|
B|12-----------------------------|10-----------------------------|
G|12-----------------------------|-9-----------------------------|
D|-------------------------------|-------------------------------|
A|-------------------------------|-------------------------------|
E|-------------------------------|-------------------------------|

 

  A7sus4      A                   G           B
e|5------ ----5-- ------- -------|------- ------- ------- -------|
B|5-----------5------------------|-------------------------------|
G|7-----------6------------------|4-------/---8------------------|
D|5-----------5------------------|5-------/---9------------------|
A|7-----------7------------------|5-------/---9------------------|
E|5-----------5------------------|3-------/---7------------------|
  show        me,            where you        are?..
e|10----- ----9-- ------- -------|7------ ----7-- ------- -------|
B|10---------10------------------|8-----------7------------------|
G|-9----------9------------------|7-----------8------------------|
D|-------------------------------|-------------------------------|
A|-------------------------------|-------------------------------|
E|-------------------------------|-------------------------------|

e|------- ------- ------- -------|3------ ------- ------- -------|
B|-------------------------------|3-----------7------------------|
G|7-----------6------------------|4-----------8------------------|
D|5-----------7------------------|------------9------------------|
A|-------------------------------|-------------------------------|
E|5-----------5------------------|3-----------7------------------|




  E7
e|------- ------- ------- -------|------- ------- ------- -------|
B|3-------3---3---3---3-------3--|----3-------3-------3-------3--|
G|1-------1---1---1---1-------1--|----1-------1-------1-------1--|
D|2-------2---2---2---2-------2--|----2-------2-------2-------2--|
A|2-------2---2---2---2-------2--|----2-------2-------2-------2--|
E|0-------0---0---0---0-------0--|----0-------0-------0-------0--|
  Creme       tangerine                       and  montelimat



                                                              F#
e|------- ------- ------- -------|------- ------- ------- -------|
B|----3-------3---3---3-------3--|----3-------3-------3----------|
G|----1-------1---1---1-------1--|----1-------1-------1-------3--|
D|----2-------2---2---2-------2--|----2-------2-------2-------4--|
A|----2-------2---2---2-------2--|----2-------2-------2-------4--|
E|----0-------0---0---0-------0--|----0-------0-------0-------2--|

e|------- ------- ------- -------|------- ------- ------- -------|
B|--------5-------3--------------|--------3----------------------|
G|------------4-------4----------|------------4------------------|
D|2-------2-------0-------5---2--|--------0-------5---6---2---3--|
A|------------2-------2----------|------------2------------------|
E|0-----------------------3---0--|----------------3---4---0---1--|




                                                              A
e|------- ------- ------- -------|------- ------- ------- -------|
B|-------------------------------|-------------------------------|
G|----3-------3-------3-------3--|----3--------3------3-------6--|
D|----4-------4-------4-------4--|----4--------4------4-------7--|
A|----4-------4-------4-------4--|----4--------4------4-------7--|
E|----2-------2-------2-------2--|----2--------2------2-------5--|
              A   ginger      sling   with a pine......apple  heart
e|------- ------- ------- -------|------- ------- ------- -------|
B|--------5-------7---5----------|--------7---5------------------|
G|------------6-----------2------|-------------------------------|
D|4-------2-------4---2----------|4-------4---2---4---5---6---7--|
A|------------4-----------0------|-------------------------------|
E|2------------------------------|2---------------2---3---4---5--|



                                                              G
e|------- ------- ------- -------|------- ------- ------- -------|
B|-------------------------------|-------------------------------|
G|--------6-------6---6-------6--|--------6-------6---6-------4--|
D|--------7-------7---7-------7--|--------7-------7---7-------5--|
A|--------7-------7---7-------7--|--------7-------7---7-------5--|
E|--------5-------5---5-------5--|--------5-------5---5-------3--|

e|------- ------- ------- -------|------- 3------ ------- -------|
B|--------7---5------------------|------------5------------------|
G|----------------5---6-------2--|--------0-------5---6----------|
D|--------4---2-----------2------|------------2-----------7---6--|
A|----------------3---4-------0--|----------------3---4----------|
E|------------------------0------|------------------------5---4--|



                                                              B
e|------- ------- ------- -------|------- ------- ------- -------|
B|-------------------------------|-------------------------------|
G|--------4---4-------4-------4--|----4---4---4---4-----------8--|
D|--------5---5-------5-------5--|----5---5---5---5-----------9--|
A|--------5---5-------5-------5--|----5---5---5---5-----------9--|
E|--------3---3-------3-------3--|----3---3---3---3-----------7--|
              A   coffee  dessert     yes you know   it's good news
e|------- ------- ------- -------|------- ------- ------- -------|
B|-------------------------------|-------------------------------|
G|----------------4---5---6---7--|-------------------------------|
D|5------------------------------|----------------5---7---8---9--|
A|----------------2---3---4---5--|-------------------------------|
E|3------------------------------|----------------3---5---6---7--|




e|------- ------- ------- -------|------- ------- ------- -------|
B|-------------------------------|-------------------------------|
G|--------8-------8---8-------8--|--------8-------8---8---8------|
D|--------9-------9---9-------9--|--------9-------9---9---9------|
A|--------9-------9---9-------9--|--------9-------9---9---9------|
E|--------7-------7---7-------7--|--------7-------7---7---7------|
                                                          But you'll
e|------- ------- ------- -------|------- ------- ------- -------|
B|-------10-------12-----10------|-----------10----------12------|
G|-----------11------11----------|-------------------------------|
D|--------7--------9------7---9--|------------7-----------9------|
A|------------9-------9----------|-------------------------------|
E|----------------------------7--|-------------------------------|
 


          Em              Em+5            Em6             Em+5
e|------- ------- ------- -------|------- ------- ------- -------|
B|--------8---------------8------|--------8---------------8------|
G|--------9---------------9------|--------9---------------9------|
D|--------9--------------10------|-------11--------------10------|
A|--------7---------------7------|--------7---------------7------|
E|-------------------------------|-------------------------------|
  have to have them all pulled out    after   the Savoy       truffle.
e|------- ------- ------- -------|------- ------- ------- -------|
B|-------------------------------|-------------------------------|
G|-------------------------------|-------------------------------|
D|2---2-----------2---2----------|2---2-----------2---2----------|
A|-------------------------------|-------------------------------|
E|0---0-----------0---0----------|0---0-----------0---0----------|



          C                       G5
e|------- 8------ ------- 8-----|------- ------- ------- -------|
B|--------8---------------8-----|-------------------------------|
G|--------9---------------9-----|-------------------------------|
D|-------10--------------10-----|5---5---5---5------------------|
A|-------10--------------10-----|5---5---5---5------------------|
E|--------8---------------8-----|3---3---3---3------------------|
                                                          Yes, you'll
e|------- ------- ------- -------|------- ----3-- ------- -------|
B|-------------------------------|--------3----------------------|
G|-------------------------------|----4-------0------------------|
D10------------------------------|5-------0----------------------|
A|-------------------------------|----2--------------------------|
E|8------------------------------|3------------------------------|




          Em              Em+5            Em6             Em+5
e|------- ------- ------- -------|------- ------- ------- -------|
B|--------8---------------8------|--------8---------------8------|
G|--------9---------------9------|--------9---------------9------|
D|--------9--------------10------|-------11--------------10------|
A|--------7---------------7------|--------7---------------7------|
E|-------------------------------|-------------------------------|
  have to have them all pulled out    after   the Savoy       truffle.
e|------- ------- ------- -------|------- ------- ------- -------|
B|-------------------------------|-------------------------------|
G|-------------------------------|-------------------------------|
D|2---2-----------2---2----------|2---2-----------2---2----------|
A|-------------------------------|-------------------------------|
E|0---0-----------0---0----------|0---0-----------0---0----------|



          C                       G
e|------- 8------ ------- 8-----|------- ------- ------- -------|
B|--------8---------------8-----|-------------------------------|
G|--------9---------------9-----|4---4---4---4------------------|
D|-------10--------------10-----|5---5---5---5------------------|
A|-------10--------------10-----|5---5---5---5------------------|
E|--------8---------------8-----|3---3---3---3------------------|
                                                         
e|------- ------- ------- -------|------- ----3-- ------- -------|
B|-------------------------------|--------3----------------------|
G|-------------------------------|----4-------0------------------|
D10------------------------------|5-------0----------------------|
A|-------------------------------|----2--------------------------|
E|8------------------------------|3------------------------------|









        B  Bend
        R  Release
        /  slide up
          slide down
        H  hammer-on
        P  pull-off
        ~  vibrato
        +  harmonic
        x  Mute note
        . - play note like a dot in standard notation
        ^ - ties two notes together
        (. Pause


Текст, аккорды и табулатура для песни "Savoy Truffle", исполняет "Beatles".
Используемые в песне аккорды можно найти в разделе Как брать аккорды. Аккорды для шестиструнной гитары. Другие песни можно найти на нашем сайте, воспользовавшись алфавитным указателем вверху страницы.


Слушать онлайн Savoy Truffle


The Fab Four Cover BandSavoy Truffle на Яндекс.Музыке


 
Ошибка в тексте? Выделите ошибку и нажмите Ctrl+Enter