----------------------------------------------------------------------


  THE BEATLES - PIGGIES (Harrison) From THE WHITE ALBUM. Released 22nd
                November 1968.


----------------------------------------------------------------------

  Tabbed by:PJVillanueva






Have you seen the little piggies
Crawling in the dirt
And for all the little piggies
Life is getting worse
Always having dirt to play around in.

Have you seen the bigger piggies
In their starched white shirts
You will find the bigger piggies
Stirring up the dirt
Always have clean shirts to play around in.

In their styes with all their backing
They don't care what goes on around
In their eyes there's something lacking
What they need's a damn good whacking.

Everywhere there's lots of piggies
Living piggy lives
You can see them out for dinner
With their piggy wives
Clutching forks and knives to eat their bacon.


 



Use a capo on sixth fret

                                    
  D                 A                 D                 A
e|2------- 2---3---|0------- --------|2---3--- 5-3-2---|0------- --------|
B|3---5----3-------|2----------------|3--------3-------|2----------------|
G|2--------2-------|2----------------|2--------2-------|2----------------|
D|0--------0-------|-----------------|0--------0-------|-----------------|
A|-----------------|0--------0-------|-----------------|0--------0-------|
E|-----------------|-----------------|-----------------|-----------------|

e|-------- --------|-------- --------|-------- --------|-------- --------|
B|-----------------|-----------------|-----------------|-----------------|
G|-----------------|-----------------|-----------------|-----------------|
D|-----------------|-----------------|0---2----4-2-0---|-----------------|
A|---------0---2---|4--------0-------|-----------------|0----------------|
E|2---3------------|-----------------|-----------------|-----------------|




  D              A                    D              A
e|2------- 2-----0-|0---0--- 0-----0-|2---2--- 2-----0-|0---0--- 0-----0-|
B|3--------3-----2-|2---2----2-----2-|3---3----3-----2-|2---2----2-----2-|
G|2--------2-----2-|2---2----2-----2-|2---2----2-----2-|2---2----2-----2-|
D|0--------0-----2-|2---2----2-----2-|0---0----0-----2-|2---2----2-----2-|
A|---------------0-|0---0----0-----0-|---------------0-|0---0----0-----0-|
E|-----------------|-----------------|-----------------|-----------------|
  Have you seen the little piggies    Crawling in the dirt



  D                 A                 Bm                E
e|2---2-2- ----2---|0---0--- 0---0---|2----2-- --2-2---|0---0--- 0-0-0---|
B|3---3-3------3---|2---2----2---2---|3----3-----3-3---|0---0----0-0-0---|
G|2---2-2------2---|2---2----2---2---|4----4-----4-4---|1---1----1-1-1---|
D|0---0-0------0---|2---2----2---2---|4----4-----4-4---|2---2----2-2-2---|
A|-----------------|0---0----0---0---|2----2-----2-2---|2---2----2-2-2---|
E|-----------------|-----------------|-----------------|0---0----0-0-0---|
  And for all the   little piggies    life is  getting worse



  Bm                E                 A
e|2-2----- 2---2-0-|0---0--- 0-0-0-0-|0------- --------|-------- --------|
B|3-3------3---3-0-|0---0----0-0-0-0-|2----------------|-----------------|
G|4-4------4---4-1-|1---1----1-1-1-1-|2----------------|-----------------|
D|4-4------4---4-2-|2---2----2-2-2-2-|2----------------|-----------------|
A|2-2------2---2-2-|2---2----2-2-2-2-|0----------------|-----------------|
E|---------------0-|0---0----0-0-0-0-|-----------------|-----------------|
  Always   having   dirt         to   play     a........round    in.
e|-------- --------|-------- --------|0------- 1-------|2------- 3-------|
B|-----------------|-----------------|2--------3-------|4--------5-------|
G|-----------------|-----------------|0--------0-------|0--------0-------|
D|-----------------|-----------------|-----------------|-----------------|
A|-----------------|-----------------|0--------2-------|3--------4-------|
E|-----------------|-----------------|-----------------|-----------------|




  D                 A                 D                 A
e|2------- 2-------|0---0--- 0-0-0---|2------- 2-------|0---0--- 0-0-0---|
B|3--------3-------|2---2----2-2-2---|3--------3-------|2---2----2-2-2---|
G|2--------2-------|2---2----2-2-2---|2--------2-------|2---2----2-2-2---|
D|0--------0-------|2---2----2-2-2---|0--------0-------|2---2----2-2-2---|
A|-----------------|0---0----0-0-0---|-----------------|0---0----0-0-0---|
E|-----------------|-----------------|-----------------|-----------------|

e|2------- 2-------|0------- --------|2---3--- 5-3-2---|0------- --------|
B|3---5----3----3--|2----------------|3--------3-------|2----------------|
G|2--------2-------|2----------------|2--------2-------|2----------------|
D|0--------0-------|-----------------|0--------0-------|-----------------|
A|-----------------|0--------0-------|-----------------|0--------0-------|
E|-----------------|-----------------|-----------------|-----------------| 




  D                 A                 D                 A
e|2-----2- 2---2---|0---0--- 0-0-0---|2-----2- 2---2---|0---0--- 0-0-0---|
B|3-----3--3---3---|2---2----2-2-2---|3-----3--3---3---|2---2----2-2-2---|
G|2-----2--2---2---|2---2----2-2-2---|2-----2--2---2---|2---2----2-2-2---|
D|0-----0--0---0---|2---2----2-2-2---|0-----0--0---0---|2---2----2-2-2---|
A|-----------------|0---0----0-0-0---|-----------------|0---0----0-0-0---|
E|-----------------|-----------------|-----------------|-----------------|
  Have you seen the bigger piggies    In their starched white shirts
e|2------- --------|0------- --------|2---0--- --------|0------- --------|
B|3----------------|2----------------|3--------3-------|2----------------|
G|2----------------|2----------------|2--------2-------|2----------------|
D|-----------------|-----------------|-----------------|-----------------|
A|-----------------|-----------------|-----------------|-----------------|
E|-----------------|-----------------|-----------------|-----------------|




  D                 A                 Bm                E
e|2-----2- 2---2---|0------- 0-0-0---|2----2-- 2---2---|0---0--- 0-0-0---|
B|3-----3--3---3---|2--------2-2-2---|3----3---3---3---|0---0----0-0-0---|
G|2-----2--2---2---|2--------2-2-2---|4----4---4---4---|1---1----1-1-1---|
D|0-----0--0---0---|2--------2-2-2---|4----4---4---4---|2---2----2-2-2---|
A|-----------------|0--------0-0-0---|2----2---2---2---|2---2----2-2-2---|
E|-----------------|-----------------|-----------------|0---0----0-0-0---|
  You will find the bigger piggies    Stirring up the dirt
e|2------- --------|0------- --------|-------- --------|-------- --------|
B|3----------------|2----------------|3---2----3-------|0----------------|
G|2----------------|2----------------|4----------------|1----------------|
D|-----------------|-----------------|4----------------|2----------------|
A|-----------------|-----------------|-----------------|-----------------|
E|-----------------|-----------------|-----------------|-----------------|





  Bm                E                 A
e|2------- 2---2---|0---0--- 0-0-0-0-|0------- --------|-------- --------|
B|3--------3---3---|0---0----0-0-0-0-|2----------------|-----------------|
G|4--------4---4---|1---1----1-1-1-1-|2----------------|-----------------|
D|4--------4---4---|2---2----2-2-2-2-|2----------------|-----------------|
A|2--------2---2---|2---2----2-2-2-2-|0----------------|-----------------|
E|-----------------|0---0----0-0-0-0-|-----------------|-----------------|
  Always   have clean shirts     to   play     a........round    in.
e|-------- --------|-------- --------|0------- 1-------|2------- 3-------|
B|3---2----3-------|0----------------|2--------3-------|4--------5-------|
G|4----------------|1----------------|0--------0-------|0--------0-------|
D|4----------------|2----------------|-----------------|-----------------|
A|-----------------|-----------------|0--------2-------|3--------4-------|
E|-----------------|-----------------|-----------------|-----------------|




  D                 A                 D                 F#
e|2------- 2-------|0------- --------|2------- ----4-5-|6------- --------|
B|3---5----3----3--|2----------------|3---5----7/8-----|7----------------|
G|2--------2-------|2----------------|2----------------|6----------------|
D|0--------0-------|-----------------|0----------------|-----------------|
A|-----------------|0--------0-------|-----------------|-----------------|
E|-----------------|-----------------|-----------------|-----------------| 

e|-------- --------|-------- --------|-------- --------|-------- --------|
B|-----------------|-----------------|-----------------|-----------------|
G|-----------------|-----------------|-----------------|-----------------|
D|0----------------|-----------------|0----------------|-----------------|
A|-----------------|0----------------|---------------0-|1----------------|
E|----0----2---3---|-----------------|----0----2-3-4---|-----------------|



  Em                F#                G                 D
e|0------- --------|2------- --------|3------- --------|2------- --------|
B|0----------------|2----------------|0----------------|3----------------|
G|0----------------|3----------------|0----------------|2----------------|
D|2----------------|4----------------|0----------------|0----------------|
A|2----------------|4----------------|2----------------|-----------------|
E|0----------------|2----------------|3----------------|-----------------|
 In their styes with all their backing They    don't    care     what 
e|-------- --------|-------- --------|-------- --------|-------- --------|
B|-----------------|-----------------|-----------------|-----------------|
G|-----------------|-----------------|-----------------|-----------------|
D|-----------------|-----------------|-----------------|7---7----7---7---|
A|2---2----2---2---|4---4----4---4---|5---5----5---5---|5---5----5---5---|
E|0---0----0---0---|2---2----2---2---|3---3----3---3---|-----------------|




  A
e|5------- --------|-------- --------|-------- --------|--3----- --------|
B|2----------------|-----------------|----2----3---4-5-|------5--3---1---|
G|2----------------|-----------------|2----------------|-----------------|
D|2----------------|-----------------|-----------------|-----------------|
A|0----------------|-----------------|-----------------|-----------------|
E|-----------------|-----------------|-----------------|-----------------|
  goes on      around
e|-------- --------|-------- --------|-------- --------|-------- --------|
B|-----------------|-----------------|-----------------|-----------------|
G|-----------------|-----------------|-----------------|--0--------------|
D|-----------------|-----------------|---------0---1-2-|-----2---0-------|
A|-----------------|-----------------|0---4------------|-------------3---|
E|-----------------|-----------------|-----------------|-----------------|

e|-------- --------|-------- --------|-------- --------|-------- --------|
B|-----------------|-----------------|-----------------|-----------------|
G|-----------------|-----------------|-----------------|-----------------|
D|-----------------|-----------------|-----------------|-----------------|
A|7---7----7---7---|7---7----7---7---|7---7----7---7---|7---7----7---7---|
E|5---5----5---5---|5---5----5---5---|5---5----5---5---|5---5----5---5---|




  Em                F#                G                 A
e|0---0--- 0---0---|2---2--- 2---2---|3---3--- 3---3---|5---5--- 5---5---|
B|0---0----0---0---|2---2----2---2---|0---0----0---0---|2---2----2---2---|
G|0---0----0---0---|3---3----3---3---|0---0----0---0---|2---2----2---2---|
D|2---2----2---2---|4---4----4---4---|0---0----0---0---|2---2----2---2---|
A|2---2----2---2---|4---4----4---4---|2---2----2---2---|0---0----0---0---|
E|0---0----0---0---|2---2----2---2---|3---3----3---3---|-----------------|
In their eyes there's something lacking What they need's a damn good whacking.
e|-------- --------|-------- --------|-------- --------|-------- --------|
B|-----------------|-----------------|-----------------|-----------------|
G|-----------------|-----------------|-----------------|-----------------|
D|-----------------|-----------------|-----------------|2---2----2---2---|
A|2---2----2---2---|4---4----4---4---|5---5----5---5---|0---0----0---0---|
E|0---0----0---0---|2---2----2---2---|3---3----3---3---|-----------------|




                                      D                 A
e|5---5--- 5---5---|5---5--- 5---5---|--5---5- --5---5-|--5---5- --5---5-|
B|2---2----2---2---|2---2----2---2---|-----------------|-----------------|
G|2---2----2---2---|2---2----2---2---|2---0--------2---|0------------0---|
D|2---2----2---2---|2---2----2---2---|---------4-------|----4----2-------|
A|0---0----0---0---|0---0----0---0---|-----------------|-----------------|
E|-----------------|-----------------|-----------------|-----------------|

e|-------- --------|-------- --------|-------- --------|-------- --------|
B|-----------------|-----------------|-----------------|-----------------|
G|-----------------|-----------------|-----------------|-----------------|
D|2---2----2---2---|2---2----2---2---|0----------------|-----------------|
A|0---0----0---0---|0---0----0---0---|-----------------|0------------4---|
E|-------------0---|2---3------------|-------------2---|-----------------|





  D                 A                 D                 A
e|--5---5- --5---5-|--5---5- --------|--5---5- --5---5-|--5---5- --5---5-|
B|-----------------|-----------------|-----------------|-----------------|
G|-----------------|-----------------|-----------------|---------0-------|
D|4---2----0---4---|2---0------------|0---2----4---0---|2---4--------2---|
A|-----------------|---------4---0---|-----------------|-----------------|
E|-----------------|-----------------|-----------------|-----------------|

e|-------- --------|-------- --------|-------- --------|-------- --------|
B|-----------------|-----------------|-----------------|-----------------|
G|-----------------|-----------------|-----------------|-----------------|
D|0---2----4---0---|-----------------|-------------0---|-----------------|
A|-----------------|0---0-2--0-------|-----------------|0------------4---|
E|-----------------|--4--------3-2-0-|2----------------|-----------------|




  Bm                E                 Bm                E
e|-------- --------|-------- --------|-------- --------|-------- --------|
B|-----------------|-----------------|-----------------|-----------------|
G|-----------------|-----------------|-----------------|-----------------|
D|0----------------|-----------------|---------0-------|2----------------|
A|----4----2---0---|-----------------|2---4--------2---|-----------------|
E|-----------------|4---2----0-------|-----------------|-----------------|

e|--7---7- --7---7-|--7---7- --7---7-|7-7---7- --7---7-|--7---7- --7---7-|
B|-----------------|-----------------|-----------------|-----------------|
G|-----------------|-----------------|-----------------|-----------------|
D|4------------4---|----4----6-------|4------------4---|----4----6-------|
A|----7----5-------|7------------7---|----7----5-------|7------------7---|
E|-----------------|-----------------|-----------------|-----------------|



  A7       G7       Cmflat5  Em6
e|0------- 1-------|2------- 3-------|
B|2--------3-------|4--------5-------|
G|0--------0-------|0--------0-------|
D|-----------------|-----------------|
A|0--------2-------|3--------4-------|
E|-----------------|-----------------|

e|--5---5- --3---3-|-------- --------|
B|-----------------|--7---7----5---5-|
G|2---2----0---0---|-----------------|
D|-----------------|4---4----2---2---|
A|-----------------|-----------------|
E|-----------------|-----------------|




  D                 A                 D                 A
e|2---3--- 5----2--|0------- --------|2---3--- 5-3-2---|0------- --------|
B|3--------3-------|2----------------|3--------3-------|2----------------|
G|2--------2-------|2---2----2P1H2---|2--------2-------|2----------------|
D|0--------0-------|-----------------|0--------0-------|-----------------|
A|-----------------|0--------0-------|-----------------|0---0----0---0---|
E|-----------------|-----------------|-----------------|-----------4-----| 

e|-------- --------|-------- --------|-------- 2-------|-------- --------|
B|3----------------|-----------------|3----------------|-----------------|
G|-----------------|2----------------|-----------------|-----------------|
D|0----------------|-----------------|0--------4-------|7---7----76-7---|
A|-----------------|0----------------|-----------------|-----------------|
E|-----------------|-----------------|-----------------|5---5----54-5---|




  D                 A                 D                 A
e|2------- --------|0------- --------|2---3--- 2-------|0------- --------|
B|3----------------|2----------------|3------------3---|2----------------|
G|2----------------|2----------------|2----------------|2----------------|
D|0----------------|2----------------|0----------------|2----------------|
A|-----------------|0----------------|-----------------|0----------------|
E|-----------------|-----------------|-----------------|-----------------|
  Everywhere there's lots of piggies  Living   piggy lives
e|-------- --------|-------- --------|-------- --------|-------- --------|
B|3---3----3-------|-----------------|3----------------|-----------------|
G|-----------------|2----------------|-----------------|2----------------|
D|0---0----0-------|-----------------|0----------------|-----------------|
A|-----------------|0----------------|-----------------|0----------------|
E|-----------------|-----------------|-----------------|-----------------|




  D                 A                 Bm                E
e|2---3--- 5----2--|0------- --------|2------- --------|-------- --------|
B|3--------3-------|2----------------|3-P-2----3-------|0----------------|
G|2--------2-------|2----------------|4----------------|1----------------|
D|0--------0-------|-----------------|4----------------|2----------------|
A|-----------------|0--------0-------|2----------------|2----------------|
E|-----------------|-----------------|-----------------|0----------------| 
  You can  see them out for  dinner  With their piggy wives
e|-------- --------|-------- --------|-------- --------|-------- --------|
B|3----------------|-----------------|-----------------|-----------------|
G|-----------------|2----------------|4----------------|-----------------|
D|0----------------|-----------------|-----------------|2----------------|
A|-----------------|0----------------|2----------------|-----------------|
E|-----------------|-----------------|-----------------|0----------------|




  Bm                E                 A7       G7       Cmflat5  Em6
e|2------- --------|-------- --------|0------- 1-------|2------- 3-------|
B|3-P-2----3-------|0---0------------|2--------3-------|4--------5-------|
G|4----------------|1--------2-P-1---|0--------0-------|0--------0-------|
D|4----------------|2--------2-------|-----------------|-----------------|
A|2----------------|2----------------|0--------2-------|3--------4-------|
E|-----------------|0----------------|-----------------|-----------------|
 Clutching forks and knives      to   eat      their    bacon.
e|-------- --------|-------- --------|-------- --------|-------- --------|
B|-----------------|-----------------|-----------------|-----------------|
G|4----------------|-----------------|2--------4-------|5--------6-------|
D|-----------------|2----------------|-----------------|-----------------|
A|2----------------|-----------------|0--------2-------|3--------4-------|
E|-----------------|0----------------|-----------------|-----------------|




  D                 A                 Dm                A
e|2---3--- 5----2--|0------- --------|5------- 5-------|0------- --------|
B|3--------3-------|2----------------|6---8----6-8-6---|2----------------|
G|2--------2-------|2----------------|7--------7-------|2----------------|
D|0--------0-------|-----------------|0----------------|-----------------|
A|-----------------|0--------0-------|-----------------|0----------------|
E|-----------------|-----------------|-----------------|-----------------| 

e|-------- --------|-------- --------|-------- --------|-------- --------|
B|3----------------|-----------------|3----------------|-----------------|
G|-----------------|2----------------|-----------------|2----------------|
D|0----------------|-----------------|0----------------|-----------------|
A|-----------------|0----------------|-----------------|0----------------|
E|-----------------|-----------------|-----------------|-----------------|



                                                       (.
  Dm                A                 Bb7               A
e|5------- 5-------|0---1--- 3---0---|-------- 1---4---|5------- --------|
B|6---8----6---6---|2----------------|3---5------------|2----------------|
G|7--------7-------|2----------------|1----------------|2----------------|
D|0----------------|-----------------|3----------------|2----------------|
A|-----------------|0----------------|1----------------|0----------------|
E|-----------------|-----------------|-----------------|-----------------|

e|-------- --------|-------- --------|-------- --------|-------- --------|
B|3----------------|-----------------|-----------------|-----------------|
G|-----------------|2----------------|-----------------|2----------------|
D|0----------------|-----------------|2----------------|-----------------|
A|-----------------|0----------------|-----------------|0----------------|
E|-----------------|-----------------|0----------------|-----------------|




                                      Eb
e|-------- --------|-------- --------|3------- --------|-------- --------|
B|-----------------|-----------------|4----------------|-----------------|
G|-----------------|-----------------|3----------------|-----------------|
D|-----------------|-----------------|1----------------|-----------------|
A|-----------------|-----------------|-----------------|-----------------|
E|-----------------|-----------------|-----------------|-----------------|
                       One more time
e|-------- --------|-------- --------|-------- --------|-------- --------|
B|-----------------|-----------------|-----------------|-----------------|
G|-----------------|-----------------|3----------------|-----------------|
D|-----------------|-----------------|1----------------|-----------------|
A|-----------------|-----------------|1----------------|-----------------|
E|-----------------|-----------------|-----------------|-----------------|




 Ebmaj7 Eb6         Bb
e|3-----3- --------|1------- --------|-------- --------|-------- --------|
B|3-----1----------|3----------------|-----------------|-----------------|
G|3-----3----------|3----------------|-----------------|-----------------|
D|1-----1----------|3----------------|-----------------|-----------------|
A|-----------------|1----------------|-----------------|-----------------|
E|-----------------|-----------------|-----------------|-----------------|

e|-------- --------|-------- --------|-------- --------|-------- --------|
B|-----------------|-----------------|-----------------|-----------------|
G|-----------------|3----------------|-----------------|-----------------|
D|-----------------|3----------------|-----------------|-----------------|
A|-----------------|1----------------|-----------------|-----------------|
E|-----------------|-----------------|-----------------|-----------------|








        B  Bend
        R  Release
        /  slide up
          slide down
        H  hammer-on
        P  pull-off
        ~  vibrato
        +  harmonic
        x  Mute note
        . - play note like a dot in standard notation
        ^ - ties two notes together
       (.  Pause


Текст, аккорды и табулатура для песни "Piggies", исполняет "Beatles".
Используемые в песне аккорды можно найти в разделе Как брать аккорды. Аккорды для шестиструнной гитары. Другие песни можно найти на нашем сайте, воспользовавшись алфавитным указателем вверху страницы.


Слушать онлайн Piggies


The Beatles Revival Band & OrchestraPiggies на Яндекс.Музыке


 
Ошибка в тексте? Выделите ошибку и нажмите Ctrl+Enter