-------------------------------------------------------------------------------
  The Beatles - Mother Nature's Son  from the White Album
-------------------------------------------------------------------------------
  Tabbed by:PJVillanueva


  Intro

e|--------:2-------:--------:2-------|--------:2--------:--------:-------|
B|---------3-----------------3-------|---------3-------------------------|
G|4-----------------2----------------|1----------------------------------|
D|-----------------------------------|-----------------------------------|
A|-----------------------------------|-----------------------------------|
E|-----------------------------------|-------------------0---------------|




e|5-------:5---5---:5------:5--------|3-------:3-------:3-------:3-------|
B|---------3---3----3-------3--------|----------3---------3---------3----|
G|---------2---2----2-------2--------|----------2---------2---------2----|
D|0----------------------------------|0----------------------------------|
A|-----------------------------------|-----------------------------------|
E|-----------------------------------|-----------------------------------|


e|0-------:0---0---:0---0--:3--------|3---2---:2---2----:2---2----:2-----|
B|---------3---3----3---3---3--------|---------3---3-----3---3-----3-----|
G|---------2---2----2---2---2--------|---------2---2-----2---2-----2-----|
D|0----------------------------------|0----------------------------------|
A|-----------------------------------|-----------------------------------|
E|-----------------------------------|-----------------------------------|


e|0--H--2--:2---2--:2---2---:2-------|2-H-3---:3---3---:3---3----:3------|
B|----------3---3---3---3----3-------|---------3---3----3---3-----3------|
G|----------2---2---2---2----2-------|---------2---2----2---2-----2------|
D|0----------------------------------|0----------------------------------|
A|-----------------------------------|-----------------------------------|
E|-----------------------------------|-----------------------------------|


e|0---2---:2---2---:2-------:2---0---|0--H--2-:2-------:2---2---:2-------|
B|----3----3---3----3--------3-------|---------3--------3---3----3-------|
G|----2----2---2----2--------2-------|---------2--------2---2----2-------|
D|-----------------------------------|-----------------------------------|
A|-----------------------------------|-----------------------------------|
E|-----------------------------------|-----------------------------------|



   Verse

e|2-------:2--------:2---2---:2------|2--H-3--:3---3---:3---3---:3-------|
B|---------3---------3---3----3------|-----3---3---3----3---3----3-------|
G|---------2---------2---2----2------|-----2---2---2----2---2----2-------|
D|0----------------------------------|0----------------------------------|
A|-----------------------------------|-----------------------------------|
E|-----------------------------------|-----------------------------------|


e|3-------:3-------:3---3---:3-------|3--P-2--:2-------:2---2---:2-------|
B|---------3--------3---3----3-------|---------3--------3---3----3-------|
G|---------4--------4---4----4-------|---------2--------2---2----2-------|
D|0----------------------------------|0----------------------------------|
A|-----------------------------------|-----------------------------------|
E|-----------------------------------|-----------------------------------|


e|--------:2-------:2---2---:2-------|--------:2-------:2---2----:2------|
B|---------3--------3---3----3-------|---------3--------3---3-----3------|
G|4----------------------------------|2----------------------------------|
D|-----------------------------------|-----------------------------------|
A|-----------------------------------|-----------------------------------|
E|-----------------------------------|-----------------------------------|

                                      First time
e|--------:2--------:2---2---:2------|--------:--------:--------:--------|
B|---------3---------3---3----3------|-----------------------------------|
G|1----------------------------------|-----------------------------------|
D|-----------------------------------|-----------------------------------|
A|-----------------------------------|-----------------------------------|
E|-----------------------------------|0----------------------------------|

  Second time
e|--------:--------:--------:--------|--------:--------:--------:--------|
B|-----------------------------------|---------2-----------------3-------|
G|-----------------------------------|---------2-----------------2-------|
D|---------------------------2-------|---------2-----------------4-------|
A|------------------2----------------|0-----------------0----------------|
E|0------/-4-------------------------|-----------------------------------|......

                          P
e|2-------:2-------:2---3---:2-------|1--------:1------:1---3----:-------|
B|---------3--------3--------3-------|----------1-------1---1-----1------|
G|---------2--------2--------2-------|----------2-------2---2-----2------|
D|0----------------------------------|0----------------------------------|
A|-----------------------------------|-----------------------------------|
E|-----------------------------------|-----------------------------------|


e|3-------:3-------:3---5---:3-------|2--------:---------:-------:-------|
B|---------3--------3---3----3-------|----------3---------7-------8------|
G|---------4--------4---4----4-------|----------2---------7-------9------|
D|0-----------------0----------------|0-------------------0--------------|
A|-----------------------------------|-----------------------------------|
E|-----------------------------------|-----------------------------------|


e|5--------:--------:--------:-------|--------:--------:5--------:-------|
B|7------------------7---------------|8-----------------7----------------|
G|-------------------7---------------|9----------------------------------|
D|0------------------0---------------|0-----------------0----------------|
A|-----------------------------------|-----------------------------------|
E|-----------------------------------|-----------------------------------|


e|7--------:--------:--------:-------|5--------:--------:--------:-------|
B|8------------------8---------------|7------------------7---------------|
G|-------------------9---------------|-------------------7---------------|
D|0------------------0---------------|0------------------0---------------|
A|-----------------------------------|-----------------------------------|
E|-----------------------------------|-----------------------------------|.....

                         P                                    P
e|5------:5-------:5---7---:5--------|5-------:5-------:5---7---:5-------|
B|--------7--------7--------7--------|---------7--------7--------7-------|
G|--------7--------7--------7--------|---------6--------6--------6-------|
D|0----------------0-----------------|0-----------------0----------------|
A|-----------------------------------|-----------------------------------|
E|-----------------------------------|-----------------------------------|


e|5-------:5--------:5---5--:5-------|7-------:-------:5--------:--------|
B|---------7---------7---7---7-------|7--------7-------7---------7-------|
G|---------5---------5---5---5-------|5--------5-------5---------5-------|
D|0------------------0---------------|0----------------0-----------------|
A|-----------------------------------|-----------------------------------|
E|-----------------------------------|-----------------------------------|


e|3-------:3-------:3---5---:3-------|2-------:2-------:2---2---:2-------|
B|---------3--------3--------3-------|---------3--------3---3----3-------|
G|---------4--------4--------4-------|---------2--------2---2----2-------|
D|0-----------------0----------------|0-----------------0----------------|
A|-----------------------------------|-----------------------------------|
E|-----------------------------------|-----------------------------------|


   Part IV Second guitar

e|--------:--------:--------:--------|--------:--------:--------:--------|
B|-----------------------------------|-----------------------------------|
G|---------2-----------------2-------|---------2-----------------2-------|
D|4-----------------4----------------|5-----------------5----------------|
A|-----------------------------------|-----------------------------------|
E|-----------------------------------|-----------------------------------|


e|--------:--------:--------:--------|--------:--------:--------:--------|
B|-----------------------------------|-----------------------------------|
G|---------2-----------------2-------|---------2--/-----7----------------|
D|5-----------------5----------------|4----------------------------------|
A|-----------------------------------|-----------------------------------|
E|-----------------------------------|-----------------------------------|

                                                           P    P
e|10------:--------:10------:--------|9-------:--------:10----9--:7------|
B|-----------------------------------|-----------------------------------|
G|-----------------------------------|-----------------------------------|
D|9-----------------9----------------|7------------------7---------------|
A|-----------------------------------|-----------------------------------|
E|-----------------------------------|-----------------------------------|


e|7-------:--------:--------:--------|--------:--------:--------:--------|
B|-----------------------------------|-----------------------------------|
G|-----------------------------------|-----------------------------------|
D|6----------------------------------|---------------------------2-------|
A|-----------------------------------|------------------2----------------|
E|-----------------------------------|0---/----4-------------------------|


e|12------:--------:10------:--------|9-------:--------:--------:--------|
B|-----------------------------------|------------------12---------------|
G|-9-----------------7---------------|6----------------------------------|
D|-----------------------------------|------------------ 9---------------|
A|-----------------------------------|-----------------------------------|
E|-----------------------------------|-----------------------------------|


e|--------:--------:--------:--------|--------:--------:--------:--------|
B|10---------------------------------|-----------------------------------|
G|------------------12---------------|11----------------9----------------|
D|-7---------------------------------|-----------------------------------|
A|------------------10---------------|-9----------------7----------------|
E|-----------------------------------|-----------------------------------|


e|--------:--------:--------:--------|5------:--------:1--/------:------|
B|-----------------------------------|-----------------------------------|
G|7----------------------------------|5----------------2--/-------------|
D|---------------------------7-------|-----------------------------------|
A|5------------7 /--9----------------|-----------------------------------|
E|-----------------------------------|-----------------------------------|


                                         ЕЕ
e|7------:--------:3--/----:--------|10------:--------:--------:--------|
B|-----------------------------------|---ЕЕ------------------------------|
G|7----------------4--/-------------|11---------------------------------|
D|-----------------------------------|-----------------------------------|
A|-----------------------------------|-----------------------------------|
E|-----------------------------------|-----------------------------------|


  Ending
                          P
e|2-------:2-------:2---3---:2-------|1-------:1---1---:1---3---:--------|
B|---------3--------3---3----3-------|---------1---1----1---1------------|
G|---------2--------2---2----2-------|---------2---2----2---2------------|
D|0----------------------------------|0----------------------------------|
A|-----------------------------------|-----------------------------------|
E|-----------------------------------|-----------------------------------|


e|3-------:3-------:3---5---:3-------|2--------:--------:--------:-------|
B|---------3--------3---3----3-------|1----------------------------------|
G|---------4--------4---4----4-------|2----------------------------------|
D|0----------------------------------|0----------------------------------|
A|-----------------------------------|-----------------------------------|
E|-----------------------------------|-----------------------------------|


| /  slide up
|   slide down
| h  hammer-on
| p  pull-off
| ~  vibrato
| +  harmonic
| x  Mute note


Текст, аккорды и табулатура для песни "Mother Natures Son", исполняет "Beatles".
Используемые в песне аккорды можно найти в разделе Как брать аккорды. Аккорды для шестиструнной гитары. Другие песни можно найти на нашем сайте, воспользовавшись алфавитным указателем вверху страницы.


Слушать онлайн Mother Natures Son


Sing Like Me! KaraokeMother Natures Son на Яндекс.Музыке


 
Ошибка в тексте? Выделите ошибку и нажмите Ctrl+Enter