The Beatles 
I Want To Hold Your Hand

Intro  x3 
G------| 
D--5---| 
A-3-5>-| 
E------| 

Verse 1 
G---------------------------------------------------------| 
D-5-5--5------------------------5-5--5------------------9>| 
A----5----5-55-5--7-77-7-----------5----5-55-5--7-77-7----| 
E------------------------7-7-7----------------------------| 

Chorus 1 
G--------------------------------| 
D---------5-5--------------5-5-5-| 
A-3-3h5-5-----7-7--3-3h5-5-------| 
E--------------------------------| 

Verse 2 
G-------------------------------------------------| 
D-5-5-5---------------------5-5-5--------------9>-| 
A-------5-5-5--7-7-7--------------5-5-5--7-7-7----| 
E--------------------7-7-7------------------------| 

Chorus 2 
G-------------------------------| 
D---------5--------------5-----5| 
A-3---5------7---3---5------5---| 
E-------------------------------| 

Bridge 
G----------------------------------------------------------| 
D-------5-55--------7-77--------5-55---------5----5----5---| 
A-5-55--------3-33--------5-55--------3-33--3-5--3-5--3-5>-| 
E----------------------------------------------------------| 

Verse 3 
G------------------------------------------------------| 
D-5-5--5-----------------------5-5-5----------------9>-| 
A----5----5-5-5--7-7-7----------------5-5-5--7-7-7-----| 
E-----------------------7-7-7--------------------------| 

Chorus 3 
G------------------------------| 
D---------5--------------5---5-| 
A-3---5------7---3---5---------| 
E------------------------------| 

then bridge, verse 1 

Outro 
G--------------------------------------------------| 
D---------5----------------------------2-5---2-5--5| 
A-3---5------7---3---5-------3---5---3-----3-------| 
E------------------------7>------------------------| 

Send comments and stuff to [email protected]


Текст, аккорды и табулатура для песни "I Wanna Hold Your Hand", исполняет "Beatles".
Используемые в песне аккорды можно найти в разделе Как брать аккорды. Аккорды для шестиструнной гитары. Другие песни можно найти на нашем сайте, воспользовавшись алфавитным указателем вверху страницы.


Слушать онлайн I Want To Hold Your Hand


The Beatles (Karaoke)I Want To Hold Your Hand на Яндекс.Музыке


 
Ошибка в тексте? Выделите ошибку и нажмите Ctrl+Enter