------------------------------------------------------------------
         The Beatles - I don't want to spoil the party
                       from Beatles for Sale album.              
-----------------------------------------------------------------------
        Tabbed by: M Paulkovich
        (improvement to solo tabbed by PJVillanueva)

          Solo
                                  G 
e|------- ------- ------- -------|------- ------- ------- -------|
B|--------0-------1-------2------|--------3----------3-----------|
G|--------0-------2-------3------|--------4----------4-----------|
D|-------------------------------|5------------------------------|
A|-------------------------------|-------------------------------|
E|-------------------------------|-------------------------------|

  C       G               C       G
e|------- ------- ------- -------|------- ------- ------- -------|
B|5-------3-------0-------1------|--------3-----------3----------|
G|5-------4-------0-------2------|------------4-----------4------|
D|-------------------------------|5------------------------------|
A|-------------------------------|-------------------------------|
E|-------------------------------|-------------------------------|


                                  G
e|------- ------- ------- -------|------- ------- ------- -------|
B|3-------0-------1-------2------|--------3----------3-----------|
G|4-------0-------2-------3------|--------4----------4-----------|
D|5------------------------------|5------------------------------|
A|-------------------------------|-------------------------------|
E|-------------------------------|-------------------------------|

  C                               D7/13
e|------- ------- ------- -------|------- 0------- ---0---- -----|
B|5-------3----------------------|--------1-----------1----------|
G|5-------4-------0-------2------|--------------------2----------|
D|-------------------------------|4------------------------------|
A|-------------------------------|-------------------------------|
E|-------------------------------|-------------------------------|


                                  Emin
e|1------ ---1--- ---1--- -------|------- ------- ------- -------|
B|1----------1-------1-----------|--------0----------0-----------|
G|2------------------2-----------|------------0-----------0------|
D|-------------------------------|2------------------------------|
A|-------------------------------|-------------------------------|
E|-------------------------------|-------------------------------|


  B7                              F
e|------- ------- ------- -------|------- ------- ------- -------|
B|0----------0---------------0---|0 h 1----1----------1----------|
G|2-------------------2----------|-------------2----------2------|
D|-----4-------------------------|-------------------------------|
A|-------------------------------|-------------------------------|
E|-------------------------------|-------------------------------|


  G                                G
e|------- ------- ------- -------|------- ------- ------- -------|
B|3-------0-------1------2-------|--------3----------3-----------|
G|4-------0-------2------3-------|--------4----------4-----------|
D|-------------------------------|-5-----------------------------|
A|-------------------------------|-------------------------------|
E|-------------------------------|-------------------------------|

  C       G               C       G
e|------- ------- ------- -------|------- ------- ------- -------|
B|5-------3-------0-------1------|--------3-----------3----------|
G|5-------4-------0-------2------|------------4-----------4------|
D|-------------------------------|5------------------------------|
A|-------------------------------|-------------------------------|
E|-------------------------------|-------------------------------|


e|3------- ------- ------- ------|
B|3------------------------------|
G|-------------------------------|
D|-------------------------------|
A|-------------------------------|
E|-------------------------------|


| /  slide up
|   slide down
| h  hammer-on
| p  pull-off
| ~  vibrato
| +  harmonic
| x  Mute note

--------------------


Текст, аккорды и табулатура для песни "I Dont Want To Spoil The Party", исполняет "Beatles".
Используемые в песне аккорды можно найти в разделе Как брать аккорды. Аккорды для шестиструнной гитары. Другие песни можно найти на нашем сайте, воспользовавшись алфавитным указателем вверху страницы.


 
Ошибка в тексте? Выделите ошибку и нажмите Ctrl+Enter