------------------------------------------------------------------------
  THE BEATLES - I CALL YOUR NAME (Lennon/McCartney) Released along with 
                LONG TALL SALLY, SLOW DOWN and MATCHBOX as an EP on June 
                1964. 
------------------------------------------------------------------------
  Tabbed by:PJVillanueva



I call your name, but you're not there         
Was I to blame for being unfair
            
Oh I can't sleep at night since you've been gone        
I never weep at night,  I can't go on
                      
Don't you know I can't take it                    
I don't know who can
                 
I'm not going to make it                       
I'm not that kind of man.
            
Oh I can't sleep at night, but just the same         
I never weep at night. I call your name



4/4 time


                                                               F#7     
e|------- ------- ------- -------|------- ------- ------- ------2|
B|-------------------------------|------------------------------5|
G|-------------------------------|------------------------------3|
D|-------------------------------|------------------------------2|
A|-------------------------------|------------------------------4|
E|-------------------------------|------------------------------2|

e|------- ------- ------- -------|------- ------- ------- -------|
B|-------------------------------|-------------------------------|
G|-------------------------------|-------------------------------|
D|-------------------------------|----------------0---2-------4--|
A|-------------------------------|--------2----------------------|
E|-------------------------------|-------------------------------|


                                   B7                         E
e|------- 2------ ----2-- ----2-/|-7----- -7----- -----7- ----0--|
B|--------5-----------5-------5-/|10------10----------10------0--|
G|--------3-----------3-------3-/|-8-------8-----------8------1--|
D|--------2-----------2-------2-/|-7-------7-----------7------2--|
A|--------4-----------4-------4-/|-9-------9-----------9------2--|
E|--------2-----------2-------2-/|-7-------7-----------7------0--|
                                  
e|------- ------- ------- -------|------- ------- ------- -------|
B|-------------------------------|-------------------------------|
G|-------------------------------|-------------------------------|
D|-------------------------------|----5-------2---5---2----------|
A|-------------------------------|------------------------5---2--|
E|-------------------------------|-------------------------------|


          E7                  B7
e|------- 0------ ----0-- -------|------- ------- ------- -------|
B|--------3-----------3-------0--|--------------------0----------|
G|--------1-----------1-------2--|--------------------2----------|
D|--------2-----------2-------1--|--------------------1----------|
A|--------2-----------2-------2--|--------------------2----------|
E|--------0-----------0----------|-------------------------------|
                                          I       call    your name
e|------- ------- ------- -------|------- ------- ------- -------|
B|-------------------------------|-------------------------------|
G|-------------------------------|-------------------------------|
D|2-------2-----2P0--------------|1------------------------------|
A|--------------------2---0---2--|-------------------------------|
E|-------------------------------|-------------------------------|
                  

          E7
e|------- 0------ ----0-- ----0--|------- 0------ ----0-- -------|
B|--------3-----------3-------3--|--------3-----------3----------|
G|--------1-----------1-------1--|--------1-----------1----------|
D|--------2-----------2-------2--|--------2-----------2----------|
A|--------2-----------2-------2--|--------2-----------2----------|
E|--------0-----------0-------0--|--------0-----------0----------|
                                          But     you're not  there
e|------- ------- ------ --------|------- ------- ------- -------|
B|-------------------------------|-------------------------------|
G|--------9-------7--9-----------|-------------------------------|
D|--------9-------7--9-----------|-------------------------------|
A|7---------------------------7--|--------7-------5--------------|
E|-------------------------------|------------7-------7----------|



          C#7
e|------- ------- ------- -------|------- ------- ------- -------|
B|--------2-----------2-------2--|--------2-------2---2----------|
G|--------4-----------4-------4--|--------4-------4---4----------|
D|--------3-----------3-------3--|--------3-------3---3----------|
A|--------4-----------4-------4--|--------4-------4---4----------|
E|-------------------------------|-------------------------------|
                                          Was     I  to       blame
e|------- 4------ ------- -------|------- ------- ------- -------|
B|--------6----------------------|-------------------------------|
G|-------------------------------|-----------------------------4-|
D|----------------4--------------|----------------4---6----------|
A|------------6---------------4--|----4---6----------------------|
E|-------------------------------|-------------------------------|

 

          F#7                                                 B7
e|------- 2------ ----2-- ----2--|------- 2------ ----2-- ----7--|
B|--------5-----------5-------5--|--------5-----------5------10--|
G|--------3-----------3-------3--|--------3-----------3-------8--|
D|--------2-----------2-------2--|--------2-----------2-------7--|
A|--------4-----------4-------4--|--------4-----------4-------9--|
E|--------2-----------2-------2--|--------2-----------2-------7--|
                                          for     being   unfair
e|------- ------- ------- -------|------- ------- ------- -------|
B|-------------------------------|-------------------------------|
G|--------3-----------3----------|--------3-----------3----------|
D|----4-----------4-----------4--|----4-----------4--------------|
A|-------------------------------|-------------------------------|
E|-------------------------------|-------------------------------|




e|------- 7------ ----7-- -------|------- 7------ ------- 7------|
B|-------10----------10----------|-------10--------------10------|
G|--------8-----------8----------|--------8---------------8------|
D|--------7-----------7----------|--------7---------------7------|
A|--------9-----------9----------|--------9---------------9------|
E|--------7-----------7----------|--------7---------------7------|
                                              Oh, I can't
e|------- ------- ------- -------|------- ------- ------- -------|
B|-------------------------------|-------------------------------|
G|-------------------------------|-------------------------------|
D|--------4-------2---4----------|------------------------0---1--|
A|---2---------------------------|----2-------2-------2----------|
E|-------------------------------|-------------------------------|

 

          E7
e|------- 0------ ----0-- ----0--|------- 0------ ----0-- -------|
B|--------3-----------3-------3--|--------3-----------3----------|
G|--------1-----------1-------1--|--------1-----------1----------|
D|--------2-----------2-------2--|--------2-----------2----------|
A|--------2-----------2-------2--|--------2-----------2----------|
E|--------0-----------0-------0--|--------0-----------0----------|
  sleep  at  night                        since   you've been gone
e|------- ------- ------- -------|------- ------- ------- -------|
B|-------------------------------|-------------------------------|
G|-------------------------------|-------------------------------|
D|2-------2-------0---2-------2--|----2---2-------0---2----------|
A|------------2------------------|------------2---------------4--|
E|-------------------------------|-------------------------------|



          C#7
e|------- ------- ------- -------|------- ------- ------- -------|
B|--------2-----------2-------2--|--------2-------2---2----------|
G|--------4-----------4-------4--|--------4-------4---4----------|
D|--------3-----------3-------3--|--------3-------3---3----------|
A|--------4-----------4-------4--|--------4-------4---4----------|
E|-------------------------------|-------------------------------|
                                           I       never 
e|------- ------- ------- -------|------- ------- ------- -------|
B|-------------------------------|-------------------------------|
G|-------------------------------|-------------------------------|
D|----------------4---6----------|--------6-------4---6----------|
A|------------6---------------4--|----------------------------0--|
E|-------------------------------|-------------------------------|

    

          F#7                             A           Am      E
e|------- 2------ ----2-- -------|------- 0------ ----0-- ----0--|
B|--------5-----------5----------|--------2-----------1-------0--|
G|--------3-----------3----------|--------2-----------2-------1--|
D|--------2-----------2----------|--------2-----------2-------2--|
A|--------4-----------4----------|--------0-----------0-------2--|
E|--------2-----------2----------|----------------------------0--|
  weep  at   night                        I       can't go    on
e|------- ------- ------- -------|------- ------- ------- -------|
B|-------------------------------|-------------------------------|
G|--------3---------------3------|-------------------------------|
D|4-------------------4----------|----------------------------2--|
A|-------------------------------|0-------------------2----------|
E|-------------------------------|-------------------------------|



          E7
e|------- 0------ ----0-- ----0--|------- 0------ ----0-- -------|
B|--------3-----------3-------3--|--------3-----------3----------|
G|--------1-----------1-------1--|--------1-----------1----------|
D|--------2-----------2-------2--|--------2-----------2----------|
A|--------2-----------2-------2--|--------2-----------2----------|
E|--------0-----------0-------0--|--------0-----------0----------|
                                          Don't you know I can't 
e|------- ------- ------- -------|------- ------- ------- -------|
B|-------------------------------|-------------------------------|
G|-------------------------------|-------------------------------|
D|--------2-------0---2----------|--------2-------2--------------|
A|------------2---------------2--|----------------------------0--|
E|-------------------------------|-------------------------------|



          A7
e|------- 5------ ----5-- ----5--|------- 5------ ----5-- -------|
B|--------8-----------8-------8--|--------8-----------8----------|
G|--------6-----------6-------6--|--------6-----------6----------|
D|--------5-----------5-------5--|--------5-----------5----------|
A|--------7-----------7-------7--|--------7-----------7----------|
E|--------5-----------5-------5--|--------5-----------5----------|
  take it                                     I don't know who can
e|------- ------- ------- -------|------- ------- ------- -------|
B|-------------------------------|-------------------------------|
G|-------------------------------|-------------------------------|
D|----------------2---2----------|----------------2---2----------|
A|----0---3---4-----------3---4--|0---0---3---4-----------3---4--|
E|-------------------------------|-------------------------------|



          C#m
e|------- 4------ ----4-- ----4--|------- 4------ 4---4-- -------|
B|--------5-----------5-------5--|--------5-------5---5----------|
G|--------6-----------6-------6--|--------6-------6---6----------|
D|--------6-----------6-------6--|--------6-------6---6----------|
A|--------4-----------4-------4--|--------4-------4---4----------|
E|-------------------------------|-------------------------------|
                                              I'm not going   to
e|------- ------- ------- -------|------- ------- ------- -------|
B|-------------------------------|-------------------------------|
G|-------------------------------|-------------------------------|
D|----------------6---6----------|----------------6--------------|
A|4---4---6---7-----------6---7--|4---4---6---7-------7---6---7--|
E|-------------------------------|-------------------------------|



          F#7                                                 C7
e|------- 2------ ----2-- ----2--|------- 2------ ----2-- -------|
B|--------5-----------5-------5--|--------5-----------5-------1--|
G|--------3-----------3-------3--|--------3-----------3-------3--|
D|--------2-----------2-------2--|--------2-----------2-------2--|
A|--------4-----------4-------4--|--------4-----------4-------3--|
E|--------2-----------2-------2--|--------2-----------2----------|
  make                it                  I'm not that kind   of
e|------- ------- ------- -------|------- ------- ------- -------|
B|-------------------------------|-------------------------------|
G|-------------------------------|-------------------------------|
D|-------------------------------|-------------------------------|
A|--------0---1---4---4---0---1--|--------0---1---4---4---0---1--|
E|2---2--------------------------|2---2--------------------------|

 

                                          B7
e|------- ------- ------- -------|------- ------- ------- -------|
B|--------1-----------1----------|--------4-----------4----------|
G|--------3-----------3----------|--------2-----------2----------|
D|--------2-----------2----------|--------4-----------4----------|
A|--------3-----------3----------|--------2-----------2----------|
E|-------------------------------|-------------------------------|
  man                                         Oh, I       can't 
e|------- ------- ------- -------|------- ------- ------- -------|
B|-------------------------------|-------------------------------|
G|----------------0---0----------|-------------------------------|
D|--------1---2-----------1---2--|--------0---1---4---4---0---1--|
A|3---3--------------------------|2---2--------------------------|
E|-------------------------------|-------------------------------|



          E7
e|------- 0------ ----0-- ----0--|------- 0------ ----0-- -------|
B|--------3-----------3-------3--|--------3-----------3----------|
G|--------1-----------1-------1--|--------1-----------1----------|
D|--------2-----------2-------2--|--------2-----------2----------|
A|--------2-----------2-------2--|--------2-----------2----------|
E|--------0-----------0-------0--|--------0-----------0----------|
  sleep at   night                        But     just the    same
e|------- ------- ------- -------|------- ------- ------- -------|
B|-------------------------------|-------------------------------|
G|-------------------------------|-------------------------------|
D|--------2-------0---2----------|--------2-------0---2----------|
A|------------2------------------|------------2------------------|
E|--------------------------0----|----0--------------------------|



          C#7
e|------- ------- ------- -------|------- ------- ------- -------|
B|--------2-----------2-------2--|--------2-------2---2----------|
G|--------4-----------4-------4--|--------4-------4---4----------|
D|--------3-----------3-------3--|--------3-------3---3----------|
A|--------4-----------4-------4--|--------4-------4---4----------|
E|-------------------------------|-------------------------------|
                                          I       never
e|------- ------- ------- -------|------- ------- ------- -------|
B|-------------------------------|-------------------------------|
G|-------------------------------|-------------------------------|
D|----------------4---6----------|--------6-------4---6----------|
A|----4-------6---------------4--|----4--------------------------|
E|-------------------------------|-------------------------------|

  

          F#7                 A                       Am      E
e|------- 2------ ----2-- ----0--|------- 0------ ----0-- ----0--|
B|--------5-----------5-------2--|--------2-----------1-------0--|
G|--------3-----------3-------2--|--------2-----------2-------1--|
D|--------2-----------2-------2--|--------2-----------2-------2--|
A|--------4-----------4-------0--|--------0-----------0-------2--|
E|--------2-----------2----------|----------------------------0--|
  weep at     night                       I       call your   name
e|------- ------- ------- -------|------- ------- ------- -------|
B|-------------------------------|-------------------------------|
G|-------------------------------|-------------------------------|
D|--------4-------------------2--|-------------------------------|
A|--------------------4----------|-------------------------------|
E|-------------------------------|-------------------------------|



          E7
e|------- 0------ ----0-- ----0--|------- 0------ ----0-- ----0--|
B|--------3-----------3-------3--|--------3-----------3-------3--|
G|--------1-----------1-------1--|--------1-----------1-------1--|
D|--------2-----------2-------2--|--------2-----------2-------2--|
A|--------2-----------2-------2--|--------2-----------2-------2--|
E|--------0-----------0-------0--|--------0-----------0-------0--|

e|------- ------- ------- -------|----12- ------- ------- -------|
B|-------------------------------|---12---8---10--10-B-11-10P8---|
G|-------------------------------|-----------------------------9-|
D|--------2----------------------|-------------------------------|
A|-------------------------------|-------------------------------|
E|-------------------------------|-------------------------------|


12/8 time

e|----0- ----0- ----0- ----0-|----0- ----0- ----0- ----0-|
B|----3------3------3------3-|----3------3------3------3-|
G|----1------1------1------1-|----1------1------1------1-|
D|----2------2------2------2-|----2------2------2------2-|
A|----2------2------2------2-|----2------2------2------2-|
E|----0------0------0------0-|----0------0------0------0-|

e|------ ------ ------ ------|------ 7----- ------ ------|
B|8-------------8---10-----10B11------------10B11-8------|
G|9------9-------------------|----------------------9---9/
D|---------------------------|---------------------------|
A|---------------------------|---------------------------|
E|---------------------------|---------------------------|


      C#7
e|------ ------ ------ ------|------ ------ ------ ------|
B|----2------2------2------2-|----2------2------2------2-|
G|----4------4------4------4-|----4------4------4------4-|
D|----3------3------3------3-|----3------3------3------3-|
A|----4------4------4------4-|----4------4------4------4-|
E|---------------------------|---------------------------|
  
e|------ ------ ------ ------|------ ------ ------ ------|
B|----9-------------9--------|----9-------------9--------|
G|10-----8------8/10--------8/10-----10--8-8/10---------|
D|---------------------------|---------------------------|
A|---------------------------|---------------------------|
E|---------------------------|---------------------------|


      F#7                         A             Am
e|----2- ----2- ----2- ----2-|----0- ----0- ----0- ----0-|
B|----5------5------5------5-|----2------2------1------1-|
G|----3------3------3------3-|----2------2------2------2-|
D|----2------2------2------2-|----2------2------2------2-|
A|----4------4------4------4-|----0------0------0------0-|
E|----2------2------2------2-|---------------------------|
  
e|------ ------ ------ ------|------ ------ ------ ----0-|
B|-------7-----------------7-|---------------------------|
G|----9------9---------------|---------------------------|
D|--------------109-8-------|-------10--9-8------------|
A|---------------------10----|---------------------------|
E|---------------------------|---------------------------|


      E7
e|----0- ----0- ----0- ----0-|----0- ----0- ----0- 0-----|
B|----3------3------3------3-|----3------3------3--3-----|
G|----1------1------1------1-|----1------1------1--1-----|
D|----2------2------2------2-|----2------2------2--2-----|
A|----2------2------2------2-|----2------2------2--2-----|
E|----0------0------0------0-|----0------0------0--0-----|
                                    Don't you know I can't
e|------ ------ ------ ------|------ ------ ------ ------|
B|----0---------42-0--------|---------------------------|
G|---------------------0-----|2--------------------------|
D|---------------------------|---------------------------|
A|---------------------------|---------------------------|
E|---------------------------|---------------------------|


4/4 time

          A7
e|------- 5------ ----5-- -------|------- 5------ ------- 5------|
B|--------8-----------8----------|--------8---------------8------|
G|--------6-----------6----------|--------6---------------6------|
D|--------5-----------5----------|--------5---------------5------|
A|--------7-----------7----------|--------7---------------7------|
E|--------5-----------5----------|--------5---------------5------|
  take it                                     I don't know who can
e|------- ------- ------- -------|------- ------- ------- -------|
B|-------------------------------|-------------------------------|
G|-------------------------------|-------------------------------|
D|----------------2---2----------|----------------2---2----------|
A|0---0---3---4-----------3---4--|0---0---3---4-----------3---4--|
E|-------------------------------|-------------------------------|



          C#m
e|------- 4------ ----4-- ----4--|------- 4------ 4---4-- 4------|
B|--------5-----------5-------5--|--------5-------5---5---5------|
G|--------6-----------6-------6--|--------6-------6---6---6------|
D|--------6-----------6-------6--|--------6-------6---6---6------|
A|--------4-----------4-------4--|--------4-------4---4---4------|
E|-------------------------------|-------------------------------|
                                              I'm not going   to
e|------- ------- ------- -------|------- ------- ------- -------|
B|-------------------------------|-------------------------------|
G|-------------------------------|-------------------------------|
D|----------------6---6----------|----------------6---6----------|
A|4---4---6---7-----------6---7--|4---4---6---7-----------6---7--|
E|-------------------------------|-------------------------------|



          F#7
e|------- 2------ ------- 2------|----2-- ----2-- ------- 2------|
B|--------5---------------5------|----5-------5-----------5------|
G|--------3---------------3------|----3-------3-----------3------|
D|--------2---------------2------|----2-------2-----------2------|
A|--------4---------------4------|----4-------4-----------4------|
E|--------2---------------2------|----2-------2-----------2------|
  make                it                  I'm not that kind   of
e|------- ------- ------- -------|------- ------- ------- -------|
B|-------------------------------|-------------------------------|
G|-------------------------------|-------------------------------|
D|-------------------------------|-------------------------------|
A|--------0---1---4---4---0---1--|--------0---1---4---4---0---1--|
E|2---2--------------------------|2---2--------------------------|



          C7                      B7
e|------- ------- ------- -------|------- ------- ------- -------|
B|--------1---------------1------|4-------------------4----------|
G|--------3---------------3------|2-------------------2----------|
D|--------2---------------2------|4-------------------4----------|
A|--------3---------------3------|2-------------------2----------|
E|-------------------------------|-------------------------------|
  man                                         Oh, I       can't
e|------- ------- ------- -------|------- ------- ------- -------|
B|-------------------------------|-------------------------------|
G|----------------0---0----------|-------------------------------|
D|--------1---2-----------1---2--|--------0---1---4---4---0---1--|
A|3---3--------------------------|2---2--------------------------|
E|-------------------------------|-------------------------------|



          E7                                                  C#7
e|------- 0------ ----0-- ----0--|------- 0------ ----0-- -------|
B|--------3-----------3-------3--|--------3-----------3-------2--|
G|--------1-----------1-------1--|--------1-----------1-------4--|
D|--------2-----------2-------2--|--------2-----------2-------3--|
A|--------2-----------2-------2--|--------2-----------2-------4--|
E|--------0-----------0-------0--|--------0-----------0----------|
  sleep at   night                        But     just the    same
e|------- ------- ------- -------|------- ------- ------- -------|
B|-------------------------------|-------------------------------|
G|-------------------------------|-------------------------------|
D|--------2-------0---2----------|--------2-------0---2----------|
A|------------2------------------|------------2---------------4--|
E|----------------------------0--|-------------------------------|




e|------- ------- ------- -------|------- ------- ------- -------|
B|--------2-----------2-------2--|--------2-------2---2----------|
G|--------4-----------4-------4--|--------4-------4---4----------|
D|--------3-----------3-------3--|--------3-------3---3----------|
A|--------4-----------4-------4--|--------4-------4---4----------|
E|-------------------------------|-------------------------------|
                                          I       never
e|------- ------- ------- -------|------- ------- ------- -------|
B|-------------------------------|-------------------------------|
G|-------------------------------|-------------------------------|
D|----------------4---6----------|----------------4---6-------4--|
A|----4---4---6-----------4---4--|----6--------------------------|
E|-------------------------------|-------------------------------|

  

          F#7                 A                           Am
e|------- 2------ ----2-- ----0--|------- 0------ ------- 0------|
B|--------5-----------5-------2--|--------2---------------1------|
G|--------3-----------3-------2--|--------2---------------2------|
D|--------2-----------2-------2--|--------2---------------2------|
A|--------4-----------4-------0--|--------0---------------0------|
E|--------2-----------2----------|-------------------------------|
  weep at     night                       I       call your   name
e|------- ------- ------- -------|------- ------- ------- -------|
B|-------------------------------|-------------------------------|
G|--------3-------2--------------|-------------------------------|
D|----4-------4----------------4-|--------2-------2---2----------|
A|-------------------------------|----0--------------------------|
E|-------------------------------|-------------------------------|



          E7                  A    
e|------- 0------ ----0-- ----0--|------- 0------ 0---0-- -------|
B|--------3-----------3-------2--|--------2-------2---2----------|
G|--------1-----------1-------2--|--------2-------2---2----------|
D|--------2-----------2-------2--|--------2-------2---2----------|
A|--------2-----------2-------0--|--------0-------0---0----------|
E|--------0-----------0----------|-------------------------------|
                                          I       call your   name
e|------- ------- ------- -------|------- ------- ------- -------|
B|-------------------------------|-------------------------------|
G|-------------------------------|-------------------------------|
D|--------2-------2-------0------|-------------------------------|
A|--------------------2----------|-------------------------------|
E|-------------------------------|----------------------------0--|


          E7                  A
e|------- 0------ ----0-- ----0--|------- 0------ 0---0-- 0------|
B|--------3-----------3-------2--|--------2-------2---2---2------|
G|--------1-----------1-------2--|--------2-------2---2---2------|
D|--------2-----------2-------2--|--------2-------2---2---2------|
A|--------2-----------2-------0--|--------0-------0---0---0------|
E|--------0-----------0----------|-------------------------------|
                                          I       call your   name
e|------- ------- ------- -------|------- ------- ------- -------|
B|-------------------------------|-------------------------------|
G|-------------------------------|-------------------------------|
D|--------2-------2--------------|-------------------------------|
A|--------------------2---0---0--|-------------------------------|
E|-------------------------------|-------------------------------|
                                  .....................Fade......

          E7                  A
e|------- 0------ ----0-- ----0--|------- 0------ 0---0-- 0------|
B|--------3-----------3-------2--|--------2-------2---2---2------|
G|--------1-----------1-------2--|--------2-------2---2---2------|
D|--------2-----------2-------2--|--------2-------2---2---2------|
A|--------2-----------2-------0--|--------0-------0---0---0------|
E|--------0-----------0----------|-------------------------------|
                              Wooooooh    I       call your   name
e|------- ------- ----12-7------|------- ------- ----12-7------|
B|-------------------------------|-------------------------------|
G|---------------------9-4------|---------------------9-4------|
D|-------------------------------|--------2----------------------|
A|-------------------------------|-------------------------------|
E|-------------------------------|-------------------------------|
  ...............................................................
 

        B  Bend
        R  Release
        /  slide up
          slide down
        H  hammer-on
        P  pull-off
        ~  vibrato
        +  harmonic
        x  Mute note
        . - play note like a dot in standard notation
        ^ - ties two notes together


Текст, аккорды и табулатура для песни "I Call Your Name", исполняет "Beatles".
Используемые в песне аккорды можно найти в разделе Как брать аккорды. Аккорды для шестиструнной гитары. Другие песни можно найти на нашем сайте, воспользовавшись алфавитным указателем вверху страницы.


Слушать онлайн I Call Your Name


Sing Like Me! KaraokeI Call Your Name на Яндекс.Музыке


 
Ошибка в тексте? Выделите ошибку и нажмите Ctrl+Enter