The following is how my band plays 'I am the Walrus.' It's tabbed for two guitars.
I highly suggest listening to the song while reading the tab to pick up all
the small string fills that I've tabbed for Guitar 2.  G'luck and have fun!

INTRO
Guitar 1 (clean w/ chorus eff.)
e|---------------------|-----------------------------------------|
B|-4-0-4-0-4-0-4-0-4-0-|-4-0-4-0-4-0-4-0-4-0-4-0-4-0-4-0-4-0-4-0-|
G|-4-4-4-4-4-4-4-4-4-4-|-4-4-4-4-4-4-4-4-4-4-4-4-4-4-4-4-4-4-4-4-|
D|---------------------|-----------------------------------------|
A|---------------------|-----------------------------------------|
E|---------------------|-----------------------------------------|
Guitar 2 (light distortion)
e|---------------------|-----------------------------------------|
B|---------------------|-2/4-----2---2/7-------------3---0-------|
G|---------------------|-----------------4-------2---------------|
D|---------------------|-----------------------------------------|
A|---------------------|-----------------------------------------|
E|---------------------|-----------------------------------------|

Gui. 1
e|-------------------------------------------------|
B|-3-0-3-0-3-0-3-0---------------------------------|
G|-4-4-4-4-4-4-4-4-2-0-2-0-2-0-2-0-5-0-5-0-5-0-5-0-|
D|-----------------2-2-2-2-2-2-2-2-5-5-5-5-5-5-5-5-|
A|-------------------------------------------------|
E|-------------------------------------------------|
Gui. 2
e|-------------------------------------------------|
B|2/3~~~~------------------------------------------|
G|-----------------2~~~~-------2/5~~~~~~~~---------|
D|-------------------------------------------------|
A|-------------------------------------------------|
E|-------------------------------------------------|

VERSE
Gui. 1 (chorus eff. Optional)
    A       G       C       D          A
e|---------------------------------|-----|
B|.-------------------------------.|-----|
G|--6-x-6-x-4-x-4-x-5-x-5-x-7-x-7--|---6-|
D|.-7-x-7-x-5-x-5-x-5-x-5-x-7-x-7-.|---7-|
A|--7-x-7-x-5-x-5-x-3-x-3-x-5-x-5--|---7-|
E|--5-x-5-x-3-x-3-x-3-x-3-x-5-x-5--|---5-|
    I am he as you...            ...I'm crying.

Gui. 2 (w/ dist.) - Fills (what the strings play)
e|-----------------|-----8-10---12~~~~-|---------------------|
B|-5b4b5b4b5b4b5b4-|-10----------------|-5b4b5b4b5b4b5b4b5~~~|
G|-----------------|-------------------|---------------------|
D|-----------------|-------------------|---------------------|
A|-----------------|-------------------|---------------------|
E|-----------------|-------------------|---------------------|

VERSE 2
Gui. 1 (chorus eff. Optional)
    A       G       C       D       A       G       F               
e|------------------------------------------------------------------|
B|.-----------------------------------------------------------------|
G|--6-x-6-x-4-x-4-x-5-x-5-x-7-x-7-x-6-x-6-x-4-x-4-x-2-x-2-x-2-x-1-x-|
D|.-7-x-7-x-5-x-5-x-5-x-5-x-7-x-7-x-7-x-7-x-5-x-5-x-3-x-3-x-3-x-3-x-|
A|--7-x-7-x-5-x-5-x-3-x-3-x-5-x-5-x-7-x-7-x-5-x-5-x-3-x-3-x-3-x-3-x-|
E|--5-x-5-x-3-x-3-x-3-x-3-x-5-x-5-x-5-x-5-x-3-x-3-x-1-x-1-x-1-x-1-x-|

Gui. 1 (chorus eff. Optional) (CHORUS)
    A       G       C                  D           E
e|-----------------------------------------------------------------|
B|-----------------------------------------------------------------|
G|-4-x-4-x-4-x-4-x-5-x-5-x-5-x-5-x-7-x-7-x-7-x-7-x-9------9-9--9-9-|
D|-4-x-4-x-4-x-4-x-5-x-5-x-5-x-5-x-7-x-5-x-7-x-7-x-9------9-9--9-9-|
A|-2-x-2-x-2-x-2-x-3-x-3-x-3-x-3-x-5-x-5-x-5-x-5-x-7------7-7--7-7-|
E|-2-x-2-x-2-x-2-x-3-x-3-x-3-x-3-x-5-x-5-x-5-x-5-x-7------7-7--7-7-|

Gui. 2 (w/ dist.) - Fills (what the strings play)
e|-----------|-----------|---------8----|---------8----|
B|---1-3-1---|---1-3-1---|------10---10-|------10---10-|
G|-2-------2-|-2-------2-|-9-11---------|-9-11---------|
D|-----------|-----------|--------------|--------------|
A|-----------|-----------|--------------|--------------|
E|-----------|-----------|--------------|--------------|


VERSE 3 (repeat VERSE 2)

BRIDGE
Gui. 1
e|-------------------------------------------------|
B|-------------------------------------------------|
G|-----8-------6-------4-------2-------4-------4---|
D|---6---6---6---6---4---4---0---0---4---4---4---4-|
A|-6-------4-------2-------0-------2-------2-------|
E|-------------------------------------------------|
Gui. 2
e|---------------7----------------10--7~~~~~~------|
B|-4---2--4--7--------------10---------------------|
G|-------------------------------------------------|
D|-------------------------------------------------|
A|-------------------------------------------------|
E|-------------------------------------------------|
   Sitting in an... 

CHORUS

VERSE 4

CHORUS


Текст, аккорды и табулатура для песни "I Am The Walrus", исполняет "Beatles".
Используемые в песне аккорды можно найти в разделе Как брать аккорды. Аккорды для шестиструнной гитары. Другие песни можно найти на нашем сайте, воспользовавшись алфавитным указателем вверху страницы.


Слушать онлайн I Am The Walrus


The Beatles Sing AlongsI Am The Walrus на Яндекс.Музыке


 
Ошибка в тексте? Выделите ошибку и нажмите Ctrl+Enter