-------------------------------------------------------------------------------
  The Beatles - Hey Bulldog from Yellow Submarine album.(Released on 17th
                January of 1969.)
-------------------------------------------------------------------------------
  Tabbed by:PJVillanueva


   Guitar riff

e|------- ------- ------- -------|------- ------- ------- -------|
B|-------------------------------|-------------------------------|
G|-------------------------------|-------------------------------|
D|--------0-----2------3-----4---|--------0-----4------3------2-0|
A|2---2------2------2------------|2---2------2------2------------|
E|-------------------------------|-------------------------------|...


e|------- ------- ------- -------|------- ------- ------- -------|
B|-------------------------------|-------------------------------|
G|--------7-----9------10----11--|--------7----11------10----9--7|
D|9---9-------9------9-----------|9---9------9-------9-----------|
A|-------------------------------|-------------------------------|
E|-------------------------------|-------------------------------|


B7        F#m
Sheepdog, standing in the rain

B7        F#m
Bullfrog, doing it again

A            F#m
Some kind of happiness 

   E
Is measured out in miles

A              F#m
What makes you think you're

          B7
Something special when you smile



B7        F#m
Childlike no one understands

B7        F#m
Jackknife in your sweaty hands

A            F#m
Some kind of innocence

   E
Is measured out in years

A         F#m
You don't know what it's like

   B7
To listen to your fears


Bm        Bm#5    Bm6
You can talk to me

Bm7             Em Em#5
You can talk to me

Em6             Em7
You can talk to me

          Bm             Em
If you're lonely you can talk to me



    Solo

e|-------- -------- -------- --------|
B|12121212-12121212---------------4-|
G|--------------------------------4-|
D|-9-9-9-9--9-9-9-9------------4----|
A|----------------------2-2-/-6------|
E|-----------------------------------|


e|-------- -------- -------- --------|
B|2--------2---4-/--5----------------|
G|2--------2---4-/--6----------------|
D|-----------------------------------|
A|-----------------------------------|
E|-----------------------------------|

e|-------- -------- -------- --------|
B|12121212-12121212---------------4-|
G|--------------------------------4-|
D|-9-9-9-9--9-9-9-9------------4----|
A|----------------------2-2-/-6------|
E|-----------------------------------|


e|-------- -------- -------- --------|
B|2--------2---4-/--5-----5--5-------|
G|2--------2---4-/--6-----6--6-------|
D|-----------------------------------|
A|-----------------------------------|
E|-----------------------------------|


e|----0--- -------- -------- --------|
B|-------/-5--3----2---2------------|
G|-------/-6--4----2---2----4---2-/-|
D|-----------------------------------|
A|0----------------------------------|
E|-----------------------------------|


e|------- 4-------- 12121212 12-----|
B|----3-------3----------------------|
G|-4---------------------------------|
D|-----------------------------------|
A|-----------------------------------|
E|-----------------------------------|


e|-------- -------- -------- --------|
B|----5----5---3----2---2----2H-4P-2-|
G|----6----6---4----2---2----2H-4P-2-|
D|-----------------------------------|
A|-----------------------------------|
E|-----------------------------------|


e|-------- -------- -------- --------|
B|4--------4-/-7-7--7-7-7-7--7------|
G|4--------4-/-8-8--8-8-8-8--8------|
D|-----------------------------------|
A|-----------------------------------|
E|-----------------------------------|


  Ending riff

e|------- ------- ------- -------|------- ------- ------- -------|
B|-------------------------------|-------------------------------|
G|-------------------------------|-------------------------------|
D|--------0-----2------3-----4---|-------------------------------|
A|2---2------2------2------------|--------0-----4-------3--2--0--|
E|-------------------------------|2---2------2-------2-----------|...


  Chords: B7    x24242       
          F#m   244222
          A     x02220
          E     022100
          Bm    x24432
          Bm#5  x25432
          Bm6   x26432    
          Bm7   x24232
          Em    022000
          Em#5  022010
          Em6   022020
          Em7   022030


| B  Bend 
| R  Release
| /  slide up
|   slide down
| h  hammer-on
| p  pull-off
| ~  vibrato
| +  harmonic
| x  Mute note


Текст, аккорды и табулатура для песни "Hey Bulldog", исполняет "Beatles".
Используемые в песне аккорды можно найти в разделе Как брать аккорды. Аккорды для шестиструнной гитары. Другие песни можно найти на нашем сайте, воспользовавшись алфавитным указателем вверху страницы.


Слушать онлайн Hey, Bulldog


Alice Cooper, Steve Vai, Duff McKaganHey, Bulldog на Яндекс.Музыке


 
Ошибка в тексте? Выделите ошибку и нажмите Ctrl+Enter