оригинальная тональность - Ля мажор
настройка стандартная (в Е)
Харрисон играет с каподастром на 7 ладу

Вступление:
   D                     G               A7 
e|----2---0-2------2-0-------------0----------------0-------
h|---3--3-----3---3----3-----0-0-3---3-0----2-0-2-3---3-0---
g|--2------------2----------0--------------0----------------
d|-0------------0----------0--------------2-----------------
a-------------2--------------0------------------
E------------3----------------------------------
   D                     G    D
e|----2---0-2------2-0-----------2-0-------
h|---3--3-----3---3----3--------3----3-2---
g|--2------------2----------0--2-----------
d|-0------------0----------0--0------------
a-------------2----------------
E------------3-----------------

Куплет:
   D                                 G           A7
e|----2---0-2------2-0-------------0----------------0-------
h|---3--3-----3---3----3-----0-0-3---3-0----2-0-2-3---3-0---
g|--2------------2----------0--------------0----------------
d|-0------------0----------0--------------2-----------------
a-------------2--------------0------------------
E------------3----------------------------------
   Little darling, it´s been a long cold lonely winter

   D                      G           A7
e|----2---0-2------2-0---------2-0---------
h|---3--3-----3---3----3-----0-----3---2---
g|--2------------2----------0---------0----
d|-0------------0----------0---------2-----
a-------------2---------0------
E------------3-----------------
   Little darling, it feels like years since it´s been here

Припев:
   D                                    E 
e|----2-0-2-------2---0-2---------2-0------------0-----
h|---3------3----3--3------------3----3------0-----0---
g|--2-----------2------------0--2-----------1----------
d|-0-----------0------------0--0-----------2-----------
a--------------2--------------2------------
E-------------3--------------0-----0-------
   Here comes the sun     Here comes the sun and i say

e|----2-0---------0-----0-----0-----0-----------
h|---3----2-----3-----3-----3-----3---3-2-------
g|--2-------2-4-----2-----0-----2---------4-2---
d|-0--------------------------------------------
a-----------------------------------
E-----------------------------------
   It´s alright...

       Fmaj    C     G           D
e-----------------------------------
h1----------------------3-----------
g|---------2-------0-----0---------2------------
d|-----2-3-------2-----0-------0--0-------------
a|-0-4---------3-----2-------2---0--------------
E--------------3--------------------
         Sun,  sun,  sun   here it comes

Концовка:
   Fmaj  C     G         D
e----------------2--
h|-----1--------------------3---
g|---2-------0-----0-------2----
d|-3-------2-----0--------0-----
a|-------3-----2-------2-0------
E--------3----------


Here comes the sun, doo mmm doo-doo
here comes the sun And I say
"It´s alright".

Little darling, it´s been a long cold lonely winter.
Little darling, it feels like years since it´s been here.

Here comes the sun, doo mmm doo-doo
here comes the sun And I say
"It´s alright".

Little darling, the smiles returning to their faces.
Little darling, it seems like years since it´s been here.

Here comes the sun, doo mmm doo-doo
here comes the sun And I say
"It´s alright".

Sun, sun, sun here it comes... (5 раз)

Little darling, I feel that ice is slowly melting.
Little darling, it seems like years since it´s been clear.

Here comes the sun, doo mmm doo-doo
here comes the sun And I say
"It´s alright".

Успехов!
P.S. Beatles - forever!!!


Текст, аккорды и табулатура для песни "Here Сomes The Sun", исполняет "Beatles".
Используемые в песне аккорды можно найти в разделе Как брать аккорды. Аккорды для шестиструнной гитары. Другие песни можно найти на нашем сайте, воспользовавшись алфавитным указателем вверху страницы.


Слушать онлайн Here Comes The Sun


The Beatles Sing AlongsHere Comes The Sun на Яндекс.Музыке


 
Ошибка в тексте? Выделите ошибку и нажмите Ctrl+Enter