intro:
 
 G-----------------------------------------------------
 D--9-9-9-9-9-9-9-7-5-5-5-5-5-5-5-4-2-2-2-2-2-2-2-2-7--
 A--------------------------------------------------0--
 E-----------------------------------------------------
 
 
 first verse:
 
 G----------------------------------------------------------------------
 D--7-7---7-7--------------6-----6-------4-4---4-4----------5-7-7-7---5---
 A------7-----7--------4-4---4-4-------------4-----4----5-5---------7-----
 E-----------------------------------------------------------------------
 
 G------------------------------------------------------------------
 D-7-7---7-7---------6-----6----4-4---4-4-----------5-7-7-7-7-7-----
 A-----7-----7---4-4---4-4----------4-----4-----5-5-----------------
 E--------------------------------------------------------------------
 
 
 chorus
 
 G----------------------------------------------------------------------
 D----------------------------------------------------------------------
 A--2-2-----2-2-----2-2-----2-2-------5-5-----5-5-----5-5---------------
 E------2-2-----2-2-----2-2-----5-3-3-----3-3-----3-3-----3-3-2-2-----
 
 G----------------------------------------------------------------------
 D----------------------------------------------------------------------
 A---------2-2---2---------2-2---2-7-----------------------------------
 E-0-0-4-4-----4---0-0-4-4-----4---------------------------------------
 
 
 second verse
 
 G-----------------------------------------------------------------
 D--7-7----7-7----------6-----6---4-4---4-4--------5-7-7---5------
 A------7------7----4-4---4-4---------4-----4--5-5-------7---------
 E-------------------------------------------------------------------
 
 G------------------------------------------------------------------
 D--7-7----7-7----------------------4-4---4-4---------5-5-7-7-7-7---
 A------7------7----4-4----4-4----------4-----4---5-5---------------
 E----------------------4------4------------------------------------
 
 
 chorus
 
 third verse
 
 G-----------------------------------------------------------------------
 D------7-------------------------4-----------5--------------7------7-7--
 A-------------------4--------------------------3-5------5-5----5-5------
 E-----------------------------------------------------------------------
 
 G----------------------------------------------------------------------
 D------6--------6----4-4---4-4-----------5-7-7-7-----------------------
 A--4-4------4-4----------4-----4-----5-5-------------------------------
 E--------------------------------------------------------------------
 
 chorus
 
 outro
 
 G--------------------------------------------------------------------
 D----4-4---------4-4-------4--------7---------------------------------
 A----------4-4----------4-----------0---------------------------------
 E--------------------------------------------------------------------


Текст, аккорды и табулатура для песни "Help (btab)", исполняет "Beatles".
Используемые в песне аккорды можно найти в разделе Как брать аккорды. Аккорды для шестиструнной гитары. Другие песни можно найти на нашем сайте, воспользовавшись алфавитным указателем вверху страницы.


 
Ошибка в тексте? Выделите ошибку и нажмите Ctrl+Enter