riff e                              riff a
 G---------------------------        
 D----------2-----4-----2----      G---------2-----4-----2
 A--------2---5-2---2-5------      D-------2---5-2---2-5--
 E--0-3-4-------------------       A-0-3-4-------------------
 
 riff b
 
 G-----------4-----6-----4
 D---------4---7-4---4-7--
 A-----5-6----------------
 E---7---------------------
 
 
 intro
 
 riff e twice 
 
 
 verse
 
 riff e four times
 riff a once
 riff e once
 
 chorus
 
 D--------2-1-4-
 A----1-4------          play this four times
 E--2----------
   She was a day tripper one way ticket, yeah, it took me
 
 D---------5-4-7--------4-3-6-----------2h4--
 A-----4-7----------3-6---------4-----------2
 E---5------------4---------------------
    so           long to find   out and I found out
 
     
 verse 
 
 chorus
 
 bridge- play riff b about 8 times
 
 verse
 
 chorus 
 
 outro- play riff e repeatedly


Текст, аккорды и табулатура для песни "Day Tripper (btab)", исполняет "Beatles".
Используемые в песне аккорды можно найти в разделе Как брать аккорды. Аккорды для шестиструнной гитары. Другие песни можно найти на нашем сайте, воспользовавшись алфавитным указателем вверху страницы.


 
Ошибка в тексте? Выделите ошибку и нажмите Ctrl+Enter