Come Together

Beatles

by Brian S.


Verses : (Bass)
g-----------------------------------------------------|
d-----------------------------------------------------|
a--5--5~~--0~h5~8~~-5~--3~~--5--5~~--0~h5~8~~-5~--3~~-|
e-----------------------------------------------------|

After - Chorus fill :
g--------------------------------------|
d--------------------------------------|
a--5--5~~--0~h5~8~~--(8)h10-(8)h10-8~/-|
e--------------------------------------|

Chorus : (Guitar)
e-------------------------------------------------|
b-------------------------------------------------|
g------------4-4-4-4-4-4-4-4----------------------|
d------------4-4-4-4-4-4-4-4-5-5-5-5---5~/7-------|
a------------2-2-2-2-2-2-2-2-5-5-5-5---5~/7-------|
e----------------------------3-3-3-3~--3~/5-------|
  Come together 		            Over me.

Solos :
 (2:02)
e----------------------------------------|
b----------------------------------------|
g-10-10-10-10-10-10-10-10-10--7~--5--7---|
d-10-10-10-10-10-10-10-10-10--7~--5--7---| 4x
a----------------------------------------|
e----------------------------------------|

  (2:13)
  guitar 1
    ^
e--15b~~------15b~--15b-r15-13--15b~~------------|
b------------------------------------------------|
g--12b~~------12b~--12b-r12-10--12b~~------------|
d---^--------------------------------------------|
a-guitar-2---------------------------------------|
e------------------------------------------------|

  (2:19)     			     (2:23)
e--15b~~--15b~--15b-r15--13--10~~----10b~~-10b-r10-|
b--------------------------------------------------|
g--12b~~--12b~--12b-r12--10-----------7b~~--7b-r7--|
d----------------------------12~~------------------|
a--------------------------------------------------|
e--------------------------------------------------|

e-8-10--15b~~~--|
b--------8b~~~--|
g-5-------------|
d---7-----------|
a---------------|
e---------------|

  (3:11) (guitar 2 out)
e--------------|-----13b--13b-r13-10-----------|
b--13b~~~~~----|---------------------13b~~~~~~-|
g--------------|-------------------------------|
d--------------|-------------------------------|
a--------------|-------------------------------|
e--------------|-------------------------------|

e--------------------------|--10--13b-r13-10---------|
b-----------------13b~~~---|-----------------13b~~~~-|
g--10--12b-r12-10----------|-------------------------|
d--------------------------|-------------------------|
a--------------------------|-------------------------|
e--------------------------|-------------------------|

e-----------------15b~~~--|--15b--15b-r15--13--15b~~~~-|
b-10--13b-r13-10----------|----------------------------|
g-------------------------|----------------------------|
d-------------------------|----------------------------|
a-------------------------|----------------------------|
e-------------------------|----------------------------|

       2x
e--17--20b--r20--17--20b~~~~-|------15b--r15-13-15b~~~-|
b----------------------------|---15--------------------|
g----------------------------|-------------------------|
d----------------------------|-------------------------|
a----------------------------|-------------------------|
e----------------------------|-------------------------|

			     2x (second time fade)
e--------------------------|-13b--13b-r13-10---------|
b------------------13b~~~~-|-----------------13b~~~~-|
g--10--12b--r12-10---------|-------------------------|
d--------------------------|-------------------------|
a--------------------------|-------------------------|
e--------------------------|-------------------------|


Текст, аккорды и табулатура для песни "Come Together", исполняет "Beatles".
Используемые в песне аккорды можно найти в разделе Как брать аккорды. Аккорды для шестиструнной гитары. Другие песни можно найти на нашем сайте, воспользовавшись алфавитным указателем вверху страницы.


Слушать онлайн Come Together


The Beatles Recovered BandCome Together на Яндекс.Музыке


 
Ошибка в тексте? Выделите ошибку и нажмите Ctrl+Enter