And Your Bird Can Sing
as performed by The Beatles
Words and Music by John Lennon and Paul McCartney

4/4 Time
Standard Tuning
(All chords are for guitar with capo at 2nd fret)


Intro

    D   /   /   /     /   /   /   /     /   /   /   /     /   /   /   /
e||-----------------|-------------0-2-|-4---4----4b-r---|-------0-2b-2-0--|
B||---97-5-7-5-4-5-|-4-2-0-----0-----|-----------------|-5-2----------2|
G||-----------------|-------2-1-------|-----------------|-----------------|
D||-----------------|-----------------|-----------------|-----------------|
A||-----------------|-----------------|-----------------|-----------------|
E||-0---------------|-----------------|-----------------|-----------------|
//////////////////////////////////////////////////////////////////////////
e||-----------------|-----------------|-----------------|-----------------|
B||-----------------|-----------------|-5---5----5b-r---|------0-2/5-2-0--|
G||---98-6-8-6-4-6-|-4-------------4-|-----------------|-41-2----------1|
D||-----------------|---7-6-4---4-6---|-----------------|-----------------|
A||-----------------|---------7-------|-----------------|-----------------|
E||-0---------------|-----------------|-----------------|-----------------|


Verse

   D       /       /       /
e|--------------------------------|
B|-0------------------------------|
G|--------------------------------|
D|--------------------------------|
A|--------------------------------|
E|--------------------------------|
//////////////////////////////////
e|--------------------------------|
B|--------------------------------|
G|--------------------------------|
D|-2------------------------------|
A|--------------------------------|
E|--------------------------------|
   Tell me that you've got ev-'ry

D     /   /    /
thing you want
D   /    /    /
and your bird can
D     /       /        /
sing, but you don't get me,
Em / / /
G / /    /        /
     you don't get
D /  / /
  me.

   D   /   /   /     /   /   /      /
e|-------0-2b-2p0--|---------------------|
B|---0-2----------2|-0-------------------|
G|-----------------|---------------------|
D|-----------------|---------------------|
A|-----------------|---------------------|
E|-----------------|---------------------|
/////////////////////////////////////////
e|-----------------|---------------------|
B|------0-2/5-2p0--|---------------------|
G|---1-2----------1|---------------------|
D|-----------------|-2-------------------|
A|-----------------|---------------------|
E|-----------------|---------------------|
                     You say you've seen

D  /  /  /
seven wonders
D   /    /    /
and your bird is
D      /      /        /
green, but ya can't see me,
Em / / /
G /   /     /
   ya can't see
D5-D / / /
     me.
D / / ///G6


Bridge

   F#m    /     /   / /     F#m/maj7 /   /   / /
e|-----------4------------|------------------------|
B|--------4--4------4-----|--------4--8------4-----|
G|-4---6--4---------4-6-4-|-4---6--4--8------4-6-4-|
D|-6---8--------------8-6-|-6---8--------------8-6-|
A|------------------------|------------------------|
E|------------------------|------------------------|
   When your prized po-ses-sions

   F#m7  /     /  / /       B/D#  /     /  / /
e|------------------------|------------------------|
B|-------4--7-----4-------|-------7--6-------------|
G|-4--6--4--8-----4-6--4--|-4--6--8--6-----6-------|
D|-6--8-------------8--6--|-6--8-----------6-6-----|
A|------------------------|------------------8--8--|
E|------------------------|---------------------9--|
   start to weigh you down,

   D      /    / /  /       Em     /    / /  /
e|------------------------|---------2-------------|
B|-----------5------------|------2--2--2----------|
G|--------4--4---4--------|----2-2-----2----2-----|
D|-6----6-6------6--6-----|-4--4------------4--4--|
A|-7----7-----------7-----|-4------------------4--|
E|--------------------7---|-----------------------|
   look in   my  di - rec - tion,      I'll be 'round,

   Em    /   / /    /       A     /     /  /  /
e|----------2-------------|----------2-------------|
B|-------2--2--2----------|-------4--4-----4-------|
G|----2--2-----2----2-----|----4--4--------4--4p2--|
D|-4--4-------------4---4-|-4--4--------------4----|
A|-4--------------------4-|-2----------------------|
E|------------------------|------------------------|
               I'll be 'round.


Guitar Solo

   D   /   /   /     /   /   /   /     /   /   /   /     /   /   /  /
e|-----------------|-------------0-2-|-4---4----4br----|-------0-2b-2-0--|
B|---97-5-7-5-4-5-|-4-2-0-----0-----|-----------------|-5-2----------2|
G|-----------------|-------2-1-------|-----------------|-----------------|
D|-----------------|-----------------|-----------------|-----------------|
A|-----------------|-----------------|-----------------|-----------------|
E|-0---------------|-----------------|-----------------|-----------------|
/////////////////////////////////////////////////////////////////////////
e|-----------------|-----------------|-----------------|-----------------|
B|-----------------|-----------------|-5---5----5br----|------0-2/5-2-0--|
G|---98-6-8-6-4-6-|-4-------------4-|-----------------|-41-2----------1|
D|-----------------|---7-6-4---4-6---|-----------------|-----------------|
A|-----------------|---------7-------|-----------------|-----------------|
E|-0---------------|-----------------|-----------------|-----------------|

   Em  /   /   /     A   /   /   /     D     /  /  /     /   / / / / /
e|-2-4-5-7-5-4-----|-------4-5-7-9-11|-11h12-12~-12br--|-7---------------|
B|-------------7-5-|-4-5-7-----------|-----------------|---9-------------|
G|-----------------|-----------------|-----------------|-----9-----------|
D|-----------------|-----------------|-----------------|-----------------|
A|-----------------|-----------------|-----------------|-----------------|
E|-----------------|-----------------|-----------------|-----------------|
/////////////////////////////////////////////////////////////////////////
e|-----------------|---------------2-|-2h4---4~~-4br---|-0---------------|
B|-----2-4-2-------|---------2-4-5---|-----------------|---0-------------|
G|-2/4-------4-2-1-|---1-2-4---------|-----------------|-----1-----------|
D|-----------------|-4---------------|-----------------|-----------------|
A|-----------------|-----------------|-----------------|-----------------|
E|-----------------|-----------------|-----------------|-----------------|


Bridge


   F#m    /     /   / /     F#m/maj7 /   /   / /
e|-----------4------------|------------------------|
B|--------4--4------4-----|--------4--8------4-----|
G|-4---6--4---------4-6-4-|-4---6--4--8------4-6-4-|
D|-6---8--------------8-6-|-6---8--------------8-6-|
A|------------------------|------------------------|
E|------------------------|------------------------|
   When your bird   is  bro  -  ken,

   F#m7  /     /  / /       B/D#  /     /  / /
e|------------------------|------------------------|
B|-------4--7-----4-------|-------7--6-------------|
G|-4--6--4--8-----4-6--4--|-4--6--8--6-----6-------|
D|-6--8-------------8--6--|-6--8-----------6-6-----|
A|------------------------|------------------8--8--|
E|------------------------|---------------------9--|
   will it  bring you       down?

   D      /    / /  /       Em     /    / /  /
e|------------------------|---------2-------------|
B|-----------5------------|------2--2--2----------|
G|--------4--4---4--------|----2-2-----2----2-----|
D|------6-6------6--6-----|-4--4------------4--4--|
A|-7----7-----------7-----|-4------------------4--|
E|--------------------7---|-----------------------|
   You  will be  a -  wo -  ken,       I'll be 'round,

   Em    /   / /    /       A     /     /  /  /
e|----------2-------------|----------2-------------|
B|-------2--2--2----------|-------4--4-----4-------|
G|----2--2-----2----2-----|----4--4--------4--4----|
D|-4--4-------------4---4-|-4--4--------------4--4-|
A|-4--------------------4-|-2--------------------2-|
E|------------------------|------------------------|
               I'll be 'round.                   You


Verse

D       /           /     /
tell me that you've heard ev'ry 
/  /  /     /   /
sound there is
/ / / /  /    /
and your bird can
/  /   /      /         / G6
swing, but ya can't hear me,
Em / / /
G/ /    /         //
     ya can't hear
D5 D / / / / /////
me.


Outro

   D   /   /   /     /   /   /   /     /   /   /   /     /   /   /  /
e|-----------------|-------------0-2-|-4---4----4br----|-------0-2b-2-0--|
B|---97-5-7-5-4-5-|-4-2-0-----0-----|-----------------|-5-2----------2|
G|-----------------|-------2-1-------|-----------------|-----------------|
D|-----------------|-----------------|-----------------|-----------------|
A|-----------------|-----------------|-----------------|-----------------|
E|-0---------------|-----------------|-----------------|-----------------|
/////////////////////////////////////////////////////////////////////////
e|-----------------|-----------------|-----------------|-----------------|
B|-----------------|-----------------|-5---5----5br----|------0-2/5-2-0--|
G|---98-6-8-6-4-6-|-4-------------4-|-----------------|-41-2----------1|
D|-----------------|---7-6-4---4-6---|-----------------|-----------------|
A|-----------------|---------7-------|-----------------|-----------------|
E|-0---------------|-----------------|-----------------|-----------------|

   Em  /   /   /     A   /   /   /     D /   /  /  /     /   / / / / /
e|-2-4-5-7-5-4-----|-------4-5-7-9-11|-12---12~--12br--|-7---------------|
B|-------------7-5-|-4-5-7-----------|-----------------|---9-------------|
G|-----------------|-----------------|-----------------|-----9-----------|
D|-----------------|-----------------|-----------------|-----------------|
A|-----------------|-----------------|-----------------|-----------------|
E|-----------------|-----------------|-----------------|-----------------|
/////////////////////////////////////////////////////////////////////////
e|-----------------|---------------2-|-4----4~~--4br---|-0---------------|
B|-----2-4-2-------|---------2-4-5---|-----------------|---1-------------|
G|-2/4-------4-2-1-|---1-2-4---------|-----------------|-----1-----------|
D|-----------------|-4---------------|-----------------|-----------------|
A|-----------------|-----------------|-----------------|-----------------|
E|-----------------|-----------------|-----------------|-----------------|

   D   /   /   /     /   /   /   /     /   /   /   /     Gtype2
e|-----------------|-----------------|-----------------|-0---------------||
B|---97-5-7-5-4-5-|---97-5-7-5-4-5-|---97-5-7-5-4-5-|-2---------------||
G|-----------------|-----------------|-----------------|-2---------------||
D|-----------------|-----------------|-----------------|-2---------------||
A|-----------------|-----------------|-----------------|-0---------------||
E|-0---------------|-0---------------|-0---------------|-----------------||
//////////////////////////////////////////////////////////////////////////
e|-----------------|-----------------|-----------------|-----------------||
B|-----------------|-----------------|-----------------|-2---------------||
G|---98-6-8-6-4-6-|---98-6-8-6-4-6-|---98-6-8-6-4-6-|-2---------------||
D|-----------------|-----------------|-----------------|-2---------------||
A|-----------------|-----------------|-----------------|-0---------------||
E|-0---------------|-0---------------|-0---------------|-----------------||
~~~~~~~~~~~~~~~~~~~~~~~~~~~~~~~~~~~~~~~~~~~~~~~~~~~~~~~~~~~~~~~~~~~~~~~~~~~
Chords
(Capo on 2nd Fret)

     D    Em   G   G6   F#m F#m/maj7 F#m7 B/D#  A   Gtype2
e-  -2-  -0-  -3-  -0-  -2-  -2-     -2-  -x-  -0-  -x-
B-  -3-  -0-  -3-  -0-  -2-  -2-     -2-  -4-  -2-  -0-
G-  -2-  -0-  -0-  -0-  -2-  -2-     -2-  -4-  -2-  -0-
D-  -0-  -2-  -0-  -0-  -4-  -3-     -2-  -4-  -2-  -0-
A-  -x-  -2-  -2-  -x-  -x-  -x-     -x-  -6-  -0-  -2-
E-  -x-  -0-  -3-  -x-  -x-  -x-     -x-  -x-  -x-  -3-


Текст, аккорды и табулатура для песни "And Your Bird Can Sing", исполняет "Beatles".
Используемые в песне аккорды можно найти в разделе Как брать аккорды. Аккорды для шестиструнной гитары. Другие песни можно найти на нашем сайте, воспользовавшись алфавитным указателем вверху страницы.


Слушать онлайн And Your Bird Can Sing


The Beatles Tribute BandAnd Your Bird Can Sing на Яндекс.Музыке


 
Ошибка в тексте? Выделите ошибку и нажмите Ctrl+Enter