#----------------------------------PLEASE NOTE---------------------------------#
#This file is the author's own work and represents their interpretation of the #
#song. You may only use this file for private study, scholarship, or research. #
#------------------------------------------------------------------------------##

Beastie Boys - Fight For Your Right
Solo


|-16b17r16--16b17r16-|-14----------------|----------------------|
|--------------------|----12-14b15r14-14-|-14-14-14b15r14-------|
|--------------------|-------------------|----------------------|
|--------------------|-------------------|----------------------|
|--------------------|-------------------|----------------------|
|--------------------|-------------------|----------------------|


|------------------------------|----19-18-16-14----14----14-16b--|
|---------------14-14b15r14-14-|----------------16----16---------|
|12h13-16-13-16----------------|-16------------------------------|
|------------------------------|---------------------------------|
|------------------------------|---------------------------------|
|------------------------------|---------------------------------|

Tabbed by Sam Fine ([email protected])


Текст, аккорды и табулатура для песни "Fight For Your Right", исполняет "Beastie Boys".
Используемые в песне аккорды можно найти в разделе Как брать аккорды. Аккорды для шестиструнной гитары. Другие песни можно найти на нашем сайте, воспользовавшись алфавитным указателем вверху страницы.


 
Ошибка в тексте? Выделите ошибку и нажмите Ctrl+Enter