Standard Tuning

This is the correct way to play it i am 100% sure.
I dont know the little solo part.

Play twice than the solo than play the main part (not cords)
about 1 and 1/2 times. Just listen to the song and u will get it.

Main Part:

e:|----------------------------------------------|
B:|----------------------------------------------|
G:|----------------------------------------------|
D:|----8-9-10-10-10-8-------8-9-10-10-10-8-------|
A:|-10----------------10-10----------------10-10-|
E:|----------------------------------------------|

e:|-----------------------------------------------|
B:|-----------------------------------------------|
G:|-----------------------------------------------|
D:|----8-9-10-10-10-8-------8-9-10-10-10-8--------|
A:|-10----------------10-10-----------------10----|
E:|-----------------------------------------------|

e:|-----------------------------------------------|
B:|-----------------------------------------------|
G:|----8-9-10-10-10-8-------8-9-10-10-10-8--------|
D:|-10----------------10-10-----------------10----|
A:|-----------------------------------------------|
E:|-----------------------------------------------|

e:|-----------------------------------------------|
B:|-----------------------------------------------|
G:|-----------------------------------------------|
D:|----8-9-10-10-10-8-------8-9-10-10-10-8--------|
A:|-10----------------10-10-----------------10----|
E:|-----------------------------------------------|

e:|----------------------------------------------|
B:|----------------------------------------------|
G:|----10-11-12-12-12-10-------12--10-10-10-8----|
D:|-12-------------------12-12----------------10-|
A:|----------------------------------------------|
E:|----------------------------------------------|

e:|------------------------------------------------------|
B:|------------------------------------------------------|
G:|------------------------------------------------------|
D:|----8-9-10-10-10-8-------10-8-------------------------|
A:|-10----------------10-10------10-10-10-10-10-10-10-10-|
E:|------------------------------------------------------|

Chords:

C:[x35543]  F:[x8101098]  G:[x1012121110]

  [C]  Drums  [C]  Drums  [F]  Drums  [C]  Drums  [G] 

Drums  [F]  Drums  [C]


Текст, аккорды и табулатура для песни "Wipeout", исполняет "Beach Boys".
Используемые в песне аккорды можно найти в разделе Как брать аккорды. Аккорды для шестиструнной гитары. Другие песни можно найти на нашем сайте, воспользовавшись алфавитным указателем вверху страницы.


Слушать онлайн Wipeout


The Beach BoysWipeout на Яндекс.Музыке


 
Ошибка в тексте? Выделите ошибку и нажмите Ctrl+Enter