Intro and verses:
E-----------------------------------------------------------------
B--------3--------3--------3----------------3----------0----------
G----0---2----0---2----0---2----0---0---0---2----0---0---2---2----
D------0--------0--------0--------0-------0--------0-------0-----0
A------------------------------------------------------3----------
E--3----------------------------------3---------------------------

E-----------------------------------------------------------------
B--3----------3---------3---------3-----------------3-------------
G--------0----2-----0---2-----0---2-----0---0---0---2-----0---0---
D----0------0---------0---------0---------0-------0---------0-----
A-----------------------------------------------------------------
E------3--------------------------------------3-------------------

E-----------------------------------------------------------------
B---0-----------3----------3---------3---------3------------------
G-----2---2------------0---2-----0---2-----0---2------0---0-------
D-------0-----0----0-----0---------0---------0----------0---------
A---3-------------------------------------------------------------
E--------------------3--------------------------------------------

E-----------------------------------------------------------------
B---------3---------0---------------------------------------------
G-----0---2-----0-------------------------------------------------
D-------0---------0-----------------------------------------------
A-------------------3---------------------------------------------
E---3-------------------------------------------------------------

Before the chorus: 
                    D/F#      Em      C      C9
                    D/F#      Em      C      C9      Dsus D
									     

Chorus:  
                     C      D      G
			   C      D      G
                     C      C9     Cadd9   Dsus D

Bridge/Riff:
E-----------------------------------------------------------------
B--0-1-3-3---0----------------0----0-1-3-3----0----------------0--
G--------------2----0----2----------------------2----0----2-------
D-----------------------------------------------------------------
A-----------------------------------------------------------------
E-----------------------------------------------------------------

E--------0--------------------------------------------------------
B--0-1-3---3----0--------------0------------------1-----0---------
G-----------------2----0---2--------2---0-----------------2------0
D-----------------------------------------2-0---------------------
A-----------------------------------------------------------------
E-----------------------------------------------------------------

E---------------------------------------------------0-------------
B---------0-1-3-3----0----------------0-----0-1-3-0---3------0----
G-------0-------0------2----0----2---------0-------------------2--
D--2--------3-----------------------------------------------------
A-----------------------------------------------------------------
E-----------------------------------------------------------------

E---------------------0-------------------------------------------
B---------------0-1-3---3---0---------------0---------------------
G--0---2---0---0--------------2----0---0--------2---0-------------
D------------------------------------------------------2---0------
A-----------------------------------------------------------------
E-----------------------------------------------------------------

E-----------------------------------------------------------------
B--1----0---------------------------------------------------------
G---------2----0--------------------------------------------------
D-------------------2----0-----2----0-----------------------------
A--------------------------------------2-0------------------------
E-----------------------------------------------------------------


Текст, аккорды и табулатура для песни "Miss You More", исполняет "Bbmak".
Используемые в песне аккорды можно найти в разделе Как брать аккорды. Аккорды для шестиструнной гитары. Другие песни можно найти на нашем сайте, воспользовавшись алфавитным указателем вверху страницы.


 
Ошибка в тексте? Выделите ошибку и нажмите Ctrl+Enter