1|-3----------3-3-------3-3-----------2-2--0-2--
2|-------0-0---------0-0-------0-1-0------------
3-----------------2-----------------
   Как найти слова? Такие нежные и добрые слова

1|-------2-2------------1-1---1-----------1----1--
2----0----------4---------------------
3|3-3-----------3--3--1-----------2----2----------
  И рассказать мою историю любви, И вспомнить дни

1---0---0---0---------------
2---------3-----1--3--------
3|-2--3---2---0------------------2----0-
  Когда шла кругом голова- Мечтаний дни.

Словно колдовством,
Любовь окутала, овеяла теплом,
Обмана мир отмыла золотым дождем,
Тебе и мне открыла истины свои, - просты они:

Второй куплет - то же самое, кроме последних слов:
1|---------0
2|--1--3-0--
  Просты они
  
Припев:

1|-1-3--0----5-----4------3-3---0---3----1-2-
2----1---1-3---------------------
 Кто любит-прав, а эта истина, Как мир стара

1|---3----------2-2-----------------------------
2|-0-----0---2---------0---3--0-2----2--------1-
3---------------------3--------3----
   и не бессмысленна. Сердца свои открыть любви

1|--0--------1-3-5------------------------0-------
2|3------3---------------0-3----3-2---3-----------
3---------0---------------------2----0-
 порой, Нам нелегко, но верить надо, Мир полон грез

1--------------------------------------
2|--------2--2-1---0-------------------------------
3|---3------------------2-0-----------------2-0-1--
4|4---------------------------4---2--4-------------
  и счастье рядом. И с тобой должны быть вместе мы.


Исповедь моя стара как море и белее, чем снега,
И пеньем ангелов наполнены века,
Любовь пришла , в душе моей звучит весна,
Со мной она.

Припев.

Как найти слова?
Такие нежные и добрые слова,
И рассказать мою историю любви,
И вспомнить дни,
Когда шла кругом голова - мечтаний дни...


Текст, аккорды и табулатура для песни "История любви", исполняет "Басков Николай".
Используемые в песне аккорды можно найти в разделе Как брать аккорды. Аккорды для шестиструнной гитары. Другие песни можно найти на нашем сайте, воспользовавшись алфавитным указателем вверху страницы.


 
Ошибка в тексте? Выделите ошибку и нажмите Ctrl+Enter