Вступление(куплет):
  Am         Am        F/C       Em       Am         Am        F/C  G/D  G/D# Am/E
||---------|-0-------|---------|-0-3-0---|---------|-0-------|---------|-----------|
||-------1-|-------3-|-1-----3-|-0-----3-|-------1-|-------3-|-1----3--|-4----5----|
||-----2---|-----2---|-----2---|-0-------|-----2---|-----2---|-2----4--|-5----5----|
||---2-----|---2-----|---3-----|---------|---2-----|---2-----|---------|-----------|
||-0-------|-0-------|-3-------|---------|-0-------|-0-------|-3----5--|-6----7----|
||---------|---------|---------|-0-------|---------|---------|---------|-----------|

  Am         Am        F/C       Em       Am         Em       Am         
||---------|-0-------|---------|-0-3-0---|-----0---|---------|---------|-0---------|
||-------1-|-------3-|-1-----3-|-0-----3-|-----1---|---3-1-3-|-------1-|-0---------|
||-----2---|-----2---|-----2---|-0-------|---------|---0-0-0-|-----2---|-----------|
||---2-----|---2-----|---3-----|---------|---2-----|---------|---2-----|-----------|
||-0-------|-0-------|-3-------|---------|-0-------|---------|-0-------|-----------|
||---------|---------|---------|-0-------|---------|-0-------|---------|-----------|

Am        Am     F/C Em
Над дверьми с водою таз
Am    Am    F  G  G# Am
Я подвесил как-то ра-аз,-
Ты прошла под водопадом,
Я смеялся до упаду.

Мне подумать даже жутко,
Что тебе не в радость шутка,
Я души в тебе не чаю,-
Просто я озорничаю.

припев
      Am      G      Am         F         C
	Ты веселую улыбку не пытайся удержать,
	      G              Am
	Лучше очень громко ржать.
	Чем серьезной мыслью злиться,
	Лучше весело молиться - радость в мире умножать.

За любовь свою ручаюсь,
Но с любовницей встречаюсь,
Ты застала нас в постели,
Мы от смеха аж вспотели.

Мне подумать даже жутко,
Что тебе не в радость шутка,
Я души в тебе не чаю,-
Просто я озорничаю.

припев

Я сегодня на рассвете
Обнаружил в туалете
Труп своей любимой киски,
В ушко воткнута записка.

Там написано: "Мишутка,
Не пугайся - это шутка,
Я души в тебе не чаю,
Ну вот и я озорничаю."

припев


Текст, аккорды и табулатура для песни "Озорничаю", исполняет "Башаков Михаил".
Используемые в песне аккорды можно найти в разделе Как брать аккорды. Аккорды для шестиструнной гитары. Другие песни можно найти на нашем сайте, воспользовавшись алфавитным указателем вверху страницы.


 
Ошибка в тексте? Выделите ошибку и нажмите Ctrl+Enter