There are a lot of chord files of this song, so I just
wrote out the Intro and Solo.

Intro :

Guitar I
e--2-----2---3----3---0-|---0--0-----------------|
b--3-----3---3----3---0-|---0--2--2--2-2-2-2-2---|
g--2-----2---0----0---0-|---0--2--2--2-2-2-2-2---|
d--0-----0---0----0---2-|---2--2--2--2-2-2-2-2---|
a------------2----2---2-|---2--0--0--0-0-0-0-0---|
e------------3----3---0-|---0--------------------|
Guitar II
e-----------------------|------------------------|
b-----------------------|----------2-2b3r2-------|
g-----------------------|---------2--------2-----|
d-----------------------|--------2-----------2---|
a-----------------------|------0-----------------|
e-----------------------|------------------------|

Guitar Solo (around 2:02) :

Guitar II
e-----------------------|--------------------------|
b--------------8--7---7-|---------------------8--7-|
g-------------x---------|-7--------------7tr9------|
d-------7tr9------------|---5--(5)--7h9-----------|
a---7h9-----------------|---5--(5)----------------|
e-----------------------|--------------------------|

e----------------10-9vvv--|-----10--12--14-p10--15p10-|
b--7----7-----10----------|---------------------------|
g--7-h9p7--/9-------------|-/11-----------------------|
d-------------------------|---------------------------|
a-------------------------|---------------------------|
e-------------------------|---------------------------|

e-----14----12-p10---10---|-10h12p10----10------------|
b--10----10--------10---10|----------10---10-------10-|
g-------------------------|-----------------11-/9----|
d-------------------------|---------------------------|
a-------------------------|---------------------------|
e-------------------------|---------------------------|

e--10-9--7--5---2---(2)--|
b-------------------------|
g-------------------------|
d-------------------------|
a-------------------------|


Текст, аккорды и табулатура для песни "Its All Been Done", исполняет "Barenaked Ladies".
Используемые в песне аккорды можно найти в разделе Как брать аккорды. Аккорды для шестиструнной гитары. Другие песни можно найти на нашем сайте, воспользовавшись алфавитным указателем вверху страницы.


 
Ошибка в тексте? Выделите ошибку и нажмите Ctrl+Enter