Barclay James Harvest - Crazy City

(from Everyone is Everybody Else, 1974)


Intro:

   Em     G    A         Bm     G    A
e|-0-0-0--3----0--0------2-2-2--3----0--0-
B|-0-0-0--0----2--2------3-3-3--0----2--2-
G|-0-0-0--0----2--2------4-4-4--0----2--2-
D|-2-2-2--0----2--2------4-4-4--0----2--2-
A|-2-2-2--2----0--0------2-2-2--2----0--0-
E|-0-0-0--3---------------------3---------

   Em     G    A   Bm  G       A
e|-0-0-0--3----0---2---3-------0--0-
B|-0-0-0--0----2---3---0-------2--2-
G|-0-0-0--0----2---4---0-------2--2-
D|-2-2-2--0----2---4---0-------2--2-
A|-2-2-2--2----0---2---2-------0--0-
E|-0-0-0--3------------3------------



[Em]Running alone in the crazy city
[Em]Look at the faces of once were pretty
[D]People then wonder what happened
To make it that [Em]way 

[Em]Listen around you, have you heard?
[Em]Climb on the back of a silver bird
[D]London to L.A. before you can think
What to [Em]say 

[Em] Stop awhile, [C] take a smile
[D] Know that you're [C] living in today
[Em] Up and down, [C] look around
[D] No need to [C]hide yourself away 

[Em]Out in the country's where I'm going
[Em]Back where the tree of life's still growing
[D]Take a free ride where the tide
Flows the way of your [Em]heart 

[Em]Follow the wild dove where he's flying
[Em]Out where the sun is never crying
[D]Wait at the gate or they'll stop you
And blow you a[Em]part 

[Em] Stop awhile, [C] take a smile
[D] Know that you're [C] living in today
[Em] Up and down, [C] look around
[D] No need to [C]hide yourself away


Текст, аккорды и табулатура для песни "Crazy City", исполняет "Barclay James Harvest".
Используемые в песне аккорды можно найти в разделе Как брать аккорды. Аккорды для шестиструнной гитары. Другие песни можно найти на нашем сайте, воспользовавшись алфавитным указателем вверху страницы.


Слушать онлайн Crazy City


Barclay James HarvestCrazy City на Яндекс.Музыке


 
Ошибка в тексте? Выделите ошибку и нажмите Ctrl+Enter