Badly Drawn Boy
The Shining
The Hour Of The Bewilderbeast

Verse Riff:

    E          Amaj7
E|---0----------0---------|
B|---0----------2---------|
G|---1----------1----1----|
D|---2----2-----2--2---2--|
A|---2--2---2---0---------|
E|---0--------------------|

Fill to Chorus:

    B   A   E
E-------0---0-----|
B---4---2---0-----|
G---4---2---1-----|
D---4---2---2-----|
A---2---0---2-----|
E-----------0-----|

Chorus Riff:
    E         Amaj7         E
E|---0--2--0---0---3--2------0--|
B|---0--0--0---2---2--2--2---0--|
G|---1--1--1---1---1--1--1---1--|
D|---2--2--2---2---2--2--2---2--|
A|---2--2--2---0---0--0--0---2--|
E|---0--0--0-----------------0--|

Intro: 	Brass instruments playing around E and Amaj7 chords
	Strum E and Amaj7 x6 then brief pause into verse.

Verse:
Faith pours from your walls
Drowning your calls
I?ve tried to hear
You?re not near

E, Amaj7, E, Amaj7 (As Verse Riff)

Remembering when
I saw your face
Shinning my way
Pure timing

E, Amaj7, E, Amaj7 (As Verse Riff)

Now I've fallen in deep
Slow silent sleep
It's killing me
I'm dying

E, Amaj7, E, Amaj7 (As Verse Riff)

(Fill)
To put a little bit of sunshine in your life

E x3

Chorus:
Soleil all over you
Warm sun pours over me
Soleil all over you
Warm sun

E, Amaj7 (Five times strummed)

Verse:
This, slick fallen rift
Came like a gift
Your body moves
Ever nearer

E, Amaj7, E, Amaj7 (As Verse Riff)

And you will dry this tear
Now that we're here
And grieve for me
Not history

E, Amaj7, E, Amaj7 (As Verse Riff)

But now I?m dry of thoughts
Wait for the rain
Then it?s replaced
Sun setting

E, Amaj7 (As Verse Riff)

(Fill)
And suddenly you're in love with everything

E x2
E, Amaj7 x6

Chorus:
Soleil all over you
Warm sun pours over me
Soleil all over you
Warm sun

End: E, Amaj7


Submitted by Matthew O'Reilly
[email protected]


Текст, аккорды и табулатура для песни "Shining", исполняет "Badly Drawn Boy".
Используемые в песне аккорды можно найти в разделе Как брать аккорды. Аккорды для шестиструнной гитары. Другие песни можно найти на нашем сайте, воспользовавшись алфавитным указателем вверху страницы.


 
Ошибка в тексте? Выделите ошибку и нажмите Ctrl+Enter