This is just a basic rythym.
tabbed by danc446, [email protected]

WE'RE ONLY GONNA DIE

e|--------------------------|
B|--------------------------|
G|--------------------5-----|
D|--5--7--5--7--5--7--5--5--|   x4
A|--5--7--5--7--5--7--3--5--|
E|--3--5--3--5--3--5-----3--|

e|------------------|
B|------------------|
G|-----------7------|
D|---7---5---7---7--|  x2
A|---7---5---5---7--|
E|---5---3-------5--|

A                G         D             A
Early man walked away as modern man took control.
A                G         D             A
Their minds weren't all the same, to conquer was his big goal,
A                G         D             A
So he built his great empire and slaughtered his own kind.
A                G         D             A
Then he died a confused man, killed himself with his own mind.
G     A     G      A      G      A
Go~~~!

G  A  G  A  G  A                  C    G
We're only gonna die from our own arrogance!


~~An old but classic BR song!~~


Текст, аккорды и табулатура для песни "Were Only Gonna Die From Our Own Arrogance", исполняет "Bad Religion".
Используемые в песне аккорды можно найти в разделе Как брать аккорды. Аккорды для шестиструнной гитары. Другие песни можно найти на нашем сайте, воспользовавшись алфавитным указателем вверху страницы.


 
Ошибка в тексте? Выделите ошибку и нажмите Ctrl+Enter