-------------------------------------------------------------------------------
                       THERE WILL BE A WAY - Bad Religion
-------------------------------------------------------------------------------

I saw one tab of this BR-song,wich was rather wrong,but I'm not sure about
this. The intro could be worng.

*=strum many times

Intro: 
e|--------------------------------------------------------------------|
B|-------------*---*---played in the background of verse 1 and 2------|
G|-------------9/79--------------------------------------------------|
D|-------------9/79--------------------------------------------------|
A|-------------7/57--------------------------------------------------|
E|--------------------------------------------------------------------|

Verse 1: (remember! the intro is played along the verse)
e|-----0-----3-----0-----3--------------------------------------------|
B|-----0-----2-----0-----2-------------play 2 times-------------------|
G|-----0-----3-----0-----3--------------------------------------------|
D|-----2-----0-----2-----0--------------------------------------------|
A|-----*-----*-----*-----*--------------------------------------------|
E|--------------------------------------------------------------------|

Chorus 1:    
e|--------------------------------------------------------------------|
B|----*----*----*---*---*------*----*----*--------fade into the intro-|
G|----5----7-------------------5----7----9----------------------------|
D|----5----7----5---5---2------5----7----9----------------------------|
A|----3----5----5---5---2------3----5----7----------------------------|
E|--------------3---2---0---------------------------------------------|
 
Verse 2:  played like verse 1, whereby verse 1 verse 2, but not the lyrics

Chorus 2: you have to play chorus 1

Solo: I have no idea

Chorus 3:

Verse 3:
e|----0-----2-----0-----2--------------------------------------------------|
B|----0-----3-----0-----3--------play 2 times------------------------------|
G|----0-----2-----0-----2--------------------------------------------------|
D|----2-----0-----2-----0--------------------------------------------------|
A|-------------------------------------------------------------------------|
E|-------------------------------------------------------------------------|

Chorus 4
e|-------------------------------------------------------------------------|
B|---*---*---*---*---*---*---*---*---*---*---*---*---*---*---*---*---*-----|
G|---5---7---------------5---7---------------5---7---5---7---5---7---9-----|
D|---5---7---5---5---2---5---7---5---5---2---5---7---5---7---5---7---9-----|
A|---3---5---5---5---2---3---5---5---5---2---3---5---3---5---3---5---7-----|
E|-----------3---2---0-----------3---2---0---------------------------------|

and fade into the intro after the last chord

Hope something is right. Corrections very welcome at: [email protected]


Текст, аккорды и табулатура для песни "There Will Be A Way", исполняет "Bad Religion".
Используемые в песне аккорды можно найти в разделе Как брать аккорды. Аккорды для шестиструнной гитары. Другие песни можно найти на нашем сайте, воспользовавшись алфавитным указателем вверху страницы.


 
Ошибка в тексте? Выделите ошибку и нажмите Ctrl+Enter