Song: Them and Us
By: Bad Religion
Submitted by ct

nice, easy song with a cool sounding solo

E|------------------------------------------------------
B|------------------------------------------------------
C|------------------------------------------------------  ...times five
D|--5-5-5-5-5-5--8-8-8-8--10-10-10-10--10-10--10--8-----
A|--5-5-5-5-5-5--8-8-8-8--10-10-10-10--8--8---10--8-----
E|--3-3-3-3-3-3--6-6-6-6--8--8--8--8----------8---6-----

E|-----------------------
B|-----------------------
C|-----------------------
D|--5-5-5-5-5-5-5-5--5---
A|-----------------------
E|-----------------------

   Verse
E|------------------------------------------------------------
B|------------------------------------------------------------
C|------------------------------------------------------------
D|--5-5-5---8-8-8--10-10-10-10---5-5-5--8-8-8--3-3-3-3-3-3----
A|--5-5-5---8-8-8--10-10-10-10---5-5-5--8-8-8--3-3-3-3-3-3----
E|--3-3-3---6-6-6--8--8--8--8----3-3-3--6-6-6--1-1-1-1-1-1----

E|------------------------------------------------------------------
B|------------------------------------------------------------------
C|------------------------------10-10-10-10-10-10-10-10-------------
D|--5-5-5--8-8-8--8-8-8-8-8-8---10-10-10-10-10-10-10-10--5-5-5-5-5--
A|--5-5-5--8-8-8--6-6-6-6-6-6---8--8--8--8--8--8--8--8---5-5-5-5-5--
E|--3-3-3--6-6-6-----------------------------------------3-3-3-3-3--

   Chorus
E|--------------------------------------------------------
B|--------------------------------------------------------
C|--------------------------------------------------------
D|--7-7-7--9-9-9--10-10-10-10--3-3-3-3-3-3--5-5-5-5-5----- ...times two
A|--5-5-5--7-7-7--8--8--8--8---3-3-3-3-3-3--3-3-3-3-3-----
E|-----------------------------1-1-1-1-1-1----------------

E|----------------------------------
B|----------------------------------
C|----------------------------------
D|--8-8-8-8-8--8-8-8-8--10-10-------
A|--6-6-6-6-6--8-8-8-8--10-10-------
E|-------------6-6-6-6--8--8--------

E|------------------------------------------------------
B|------------------------------------------------------
C|------------------------------------------------------
D|--5-5-5-5-5-5--8-8-8-8--10-10-10-10--10-10--10--8----- ...times two
A|--5-5-5-5-5-5--8-8-8-8--10-10-10-10--8--8---10--8-----
E|--3-3-3-3-3-3--6-6-6-6--8--8--8--8----------8---6-----

 Verse
E|------------------------------------------------------------
B|------------------------------------------------------------
C|------------------------------------------------------------
D|--5-5-5---8-8-8--10-10-10-10---5-5-5--8-8-8--3-3-3-3-3-3----
A|--5-5-5---8-8-8--10-10-10-10---5-5-5--8-8-8--3-3-3-3-3-3----
E|--3-3-3---6-6-6--8--8--8--8----3-3-3--6-6-6--1-1-1-1-1-1----

E|------------------------------------------------------------------
B|------------------------------------------------------------------
C|------------------------------10-10-10-10-10-10-10-10-------------
D|--5-5-5--8-8-8--8-8-8-8-8-8---10-10-10-10-10-10-10-10--5-5-5-5-5--
A|--5-5-5--8-8-8--6-6-6-6-6-6---8--8--8--8--8--8--8--8---5-5-5-5-5--
E|--3-3-3--6-6-6-----------------------------------------3-3-3-3-3--

   Chorus
E|--------------------------------------------------------
B|--------------------------------------------------------
C|--------------------------------------------------------
D|--7-7-7--9-9-9--10-10-10-10--3-3-3-3-3-3--5-5-5-5-5----- ...times two
A|--5-5-5--7-7-7--8--8--8--8---3-3-3-3-3-3--3-3-3-3-3-----
E|-----------------------------1-1-1-1-1-1----------------

E|----------------------------------
B|----------------------------------
C|----------------------------------
D|--8-8-8-8-8--8-8-8-8--10-10-------
A|--6-6-6-6-6--8-8-8-8--10-10-------
E|-------------6-6-6-6--8--8--------

E|----------------------------   ---------------------
B|----------------------------   ---------------------
C|----------------------------   ---------------------
D|--5-5-5--8-8-8--5-5-5-5-5---   -10-10-10-10-10-10---
A|--5-5-5--6-6-6--3-3-3-3-3---   --8--8--8--8--8--8---
E|--3-3-3---------------------   ---------------------

  Solo
E|------------------------------------------------------------------
B|-----------------12(14)-------------------------------------------
C|--7-9-10--12(14)--------12(14)-12(14)--9-10-9-10-9----------------
D|---------------------------------------------------12---12-12-12--
A|------------------------------------------------------------------
E|------------------------------------------------------------------

E|--------------------------------------------------
B|--------------------------------------------------
C|--10-10-10--8-8-8-8--7-7-7-8-7---------7-8-7------
D|--------------------------------10-10--------10---
A|--------------------------------------------------
E|--------------------------------------------------

E|--------------------------------------------------------
B|--------------------------------------------------------
C|--------------------------------------------------------
D|--7-7-7--9-9-9--10-10-10-10--3-3-3-3-3-3--5-5-5-5-5----- ...times two
A|--5-5-5--7-7-7--8--8--8--8---3-3-3-3-3-3--3-3-3-3-3-----
E|-----------------------------1-1-1-1-1-1----------------

E|-----------------------------------------------------
B|-----------------------------------------------------
C|-----------------------------------------------------
D|--8-8-8-8--8-8-8-8--6-6-6--6-6-6--8-8-8--10-10-10----
A|--6-6-6-6--8-8-8-8--4-4-4--6-6-6--8-8-8--10-10-10----
E|-----------6-6-6-6---------4-4-4--6-6-6--8--8--8-----

E|------------------------------------------------------
B|------------------------------------------------------
C|------------------------------------------------------
D|--5-5-5-5-5-5--8-8-8-8--10-10-10-10--10-10--10--8----- ...times three
A|--5-5-5-5-5-5--8-8-8-8--10-10-10-10--8--8---10--8-----
E|--3-3-3-3-3-3--6-6-6-6--8--8--8--8----------8---6-----

E|-----------------------------------------------||
B|-----------------------------------------------||
C|-----------------------------------------------||
D|--5-5-5-5-5-5--8-8-8-8--10-10-10-10--3-3-3--5--||
A|--5-5-5-5-5-5--8-8-8-8--10-10-10-10--3-3-3--5--||
E|--3-3-3-3-3-3--6-6-6-6--8--8--8--8---1-1-1--3--||

enjoy


Текст, аккорды и табулатура для песни "Them And Us", исполняет "Bad Religion".
Используемые в песне аккорды можно найти в разделе Как брать аккорды. Аккорды для шестиструнной гитары. Другие песни можно найти на нашем сайте, воспользовавшись алфавитным указателем вверху страницы.


 
Ошибка в тексте? Выделите ошибку и нажмите Ctrl+Enter