-------------------------------------------------------------------------------
			     PROVE IT  - Bad Religion
-------------------------------------------------------------------------------

Tabbed by: danc446
Email: [email protected]

Tuning: Standard

INTRO lead
e|-----------------------------------------------|
B|-----------------------------------------------|
G|-----------------------------------------------|
D|-----------------------------------------------|
A|--7--5--7--5--7--5p0--7--5--7--5--7--5--7--5---|
E|-------------------------------------------------PICK SLIDE -|

INTRO rhythm
e|-----------------------------------------------|
B|-----------------------------------------------|
G|--9-9-9-9-9-9-9-9-9-9-9-9-9-9-9-9-9-9-9-9-9-9--|
D|--9-9-9-9-9-9-9-9-9-9-9-9-9-9-9-9-9-9-9-9-9-9--|
A|--7-7-7-7-7-7-7-7-7-7-7-7-7-7-7-7-7-7-7-7-7-7--|
E|-----------------------------------------------|

VERSE
e|----------------------------------------------------||
B|------------------------------------PLAy  TWICE THEN||
G|---------------109-9-------------------------------||
D|--7-7-7-7-7-7--109-9-5/7-7-7-7-7--10-10-10-10-10---||
A|--7-7-7-7-7-7---87-7-5/7-7-7-7-7--10-10-10-10-10---||
E|--5-5-5-5-5-5---------3/5-5-5-5-5---8--8--8--8--8---||

e|----------------------------------------PLAY THIS 2X-||
B|-----------------------------------------------------||
G|--7-7-7-7-7-7---9/10-10-10-10-10--------109-9-----5-||
D|--7-7-7-7-7-7---9/10-10-10-10-10--7-7-7-109-9-5/7-5-||
A|--5-5-5-5-5-5---7/-8--8--8--8--8--7-7-7--87-7-5/7-3-||
E|----------------------------------5-5-5--------3/5---||

BREAKDOWN
e|--------------------------------------------------------------------------
B|--------------------------------------------------------------------------
G|-10-10-10-10---------------7-7-9-9----------10101010----------7-7-7-7-7---
D|-10-10-10-10--10-10-10-10--7-7-9-9-7-7-7-7--10101010-10101010-7-7-7-7-7---
A|--8--8--8--8--10-10-10-10--5-5-7-7-7-7-7-7---8-8-8-8-10101010-5-5-5-5-5---
E|---------------8--8--8--8----------5-5-5-5------------8-8-8-8-------------

e|--------------------|-----PLAY THREE TIMES THEN...|-----------------------|
B|--------------------|-----------------------------|-----------------------|
G|--9-9-9-9-9-9-9-9-9-|-----------5-5-7-7-9-9-9-9---|-----5-5-5-5-----------|
D|--9-9-9-9-9-9-9-9-9-|-7-7-7-7-7-5-5-7-7-9-9-9-9---|-3-3-5-5-5-5-5-5-5-5-5-|
A|--7-7-7-7-7-7-7-7-7-|-7-7-7-7-7-3-3-5-5-7-7-7-7---|-3-3-3-3-3-3-5-5-5-5-5-|
E|--------------------|-5-5-5-5-5-------------------|-1-1---------3-3-3-3-3-|

e|--------------------------|
B|--------------------------|
G|--------------------------|
D|-777-7-777-7-777-7-777-7|
A|-777-7-777-7-777-7-777-7|
E|-555-5-555-5-555-5-555-5|
PM***** ***** ***** *****

| /  slide up
|   slide down
| h  hammer-on
| p  pull-off
| ~  vibrato
| +  harmonic
| x  Mute note

===============================================================================


Текст, аккорды и табулатура для песни "Prove It", исполняет "Bad Religion".
Используемые в песне аккорды можно найти в разделе Как брать аккорды. Аккорды для шестиструнной гитары. Другие песни можно найти на нашем сайте, воспользовавшись алфавитным указателем вверху страницы.


 
Ошибка в тексте? Выделите ошибку и нажмите Ctrl+Enter