Boot Stomping on a human face forever
by bad religion
Tabber: trevor schlesinger

Intro
Guitar 1
e----------------------------------------------------------------------------|
b----------------------------------------------------------------------------|
g----------------------------------------------------------------------------|
d------7---9---5---9---7-------------7---9---5~/3~33333-2~-------------------|
a-55--------------------------------55---------------------------------------|
E----------------------------------------------------------------------------|

Verse:Second time Play bass line

intro/verse-chords only
Guitar 2
e------------------------------------------------------|
b------------------------------------------------------|
g--7----x----3----x----7----x----3----x----7----x----2-|
d--7----x----3----x----7----x----3----x----7----x----2-|
a--5----x----1----x----5----x----1----x----5----x----0-|
E------------------------------------------------------|

Chorus
e--------------------------------------------|
b--------------------------------------------|
g7~----9~----11~----9~----7777777----9999999-|
d7~----9~----11~----9~----7777777----9999999-|
a5~----7~-----9~----7~----5555555----7777777-|
E

Break After Chorus
e
b-----------------------------------------|short string stop
g--9----7----5--5-----------------------2-|
d--9----7----5--5-----------------------2-|
a--7----5----3--3-----------------------0-|
E

Solo:
No real Clue Works Blues Style around the Intro

Bass:Exact not shown
Intro/Verse
g-----------------------------------------------------------------|
d-----------------------------------------------------------------|
a--55555--111111--5555555--111111---555555--1111111555555--000000-|
E-----------------------------------------------------------------|

Chorus:Follow Guitar
g---------------------------------------------------------|
d---------------------------------------------------------|
a--5~----7~-----9~----7~----5555555----7777777------------|
E---------------------------------------------------------|

Thanks to bad religion for this song and George Orwell for their inspiration


Текст, аккорды и табулатура для песни "Boot Stomping On A Human Face Forever", исполняет "Bad Religion".
Используемые в песне аккорды можно найти в разделе Как брать аккорды. Аккорды для шестиструнной гитары. Другие песни можно найти на нашем сайте, воспользовавшись алфавитным указателем вверху страницы.


 
Ошибка в тексте? Выделите ошибку и нажмите Ctrl+Enter