------------------------------------------------------------------------------- 
                  AGAINST THE GRAIN - Bad Religion 
------------------------------------------------------------------------------- 

by [email protected] 

You can figure out the rythem yourself its easy 

2xs 
E------------------------------- 
B------------------------------- 
G--------------0---------------- 
D----------0-2---2-------------- 
A--3---2-3---------------------- 
E------------------------------- 

3000 miles of wilderness (repeat a couple of times) 
E------------------------------- 
B------------------------------- 
G------------------------------- 
D-5-5-5-5-5-5-5-9-9-9-9-9-9-9--- 
A-3-3-3-3-3-3-3-7-7-7-7-7-7-7--- 
E------------------------------- 

Against the grain 3xs 
A------------------------------- 
B--1---0------------------------ 
G--------2-0-------------------- 
D------------2-0-2-------------- 
A------------------------------- 
E------------------------------- 

I maintain against the grain 2xs 
E------------------------------- 
B------------------------------- 
G--------------0---------------- 
D----------0-2---2-------------- 
A--3---2-3---------------------- 
E------------------------------- 

You're labeled as a lunatic (repeat a couple of times) 
E------------------------------- 
B------------------------------- 
G------------------------------- 
D-5-5-5-5-5-5-5-9-9-9-9-9-9-9--- 
A-3-3-3-3-3-3-3-7-7-7-7-7-7-7--- 
E------------------------------- 

Against the grain 3xs 
A------------------------------- 
B--1---0------------------------ 
G--------2-0-------------------- 
D------------2-0-2-------------- 
A------------------------------- 
E------------------------------- 

I maintain against the grain 2xs 
E------------------------------- 
B------------------------------- 
G--------------0---------------- 
D----------0-2---2-------------- 
A--3---2-3---------------------- 
E------------------------------- 

The flow is getting stronger (repeat a couple of times) 
E------------------------------- 
B------------------------------- 
G------------------------------- 
D-5-5-5-5-5-5-5-9-9-9-9-9-9-9--- 
A-3-3-3-3-3-3-3-7-7-7-7-7-7-7--- 
E------------------------------- 

Against the grain 3xs 
A------------------------------- 
B--1---0------------------------ 
G--------2-0-------------------- 
D------------2-0-2-------------- 
A------------------------------- 
E------------------------------- 

I maintain against the grain 2xs 
E------------------------------- 
B------------------------------- 
G--------------0---------------- 
D----------0-2---2-------------- 
A--3---2-3---------------------- 
E------------------------------- 

There's a common consensus (repeat a couple of times) 
E------------------------------- 
B------------------------------- 
G------------------------------- 
D-5-5-5-5-5-5-5-9-9-9-9-9-9-9--- 
A-3-3-3-3-3-3-3-7-7-7-7-7-7-7--- 
E------------------------------- 

Against the grain 3xs 
A------------------------------- 
B--1---0------------------------ 
G--------2-0-------------------- 
D------------2-0-2-------------- 
A------------------------------- 
E------------------------------- 

I maintain against the grain 1xs 
E------------------------------- 
B------------------------------- 
G--------------0---------------- 
D----------0-2---2-------------- 
A--3---2-3---------------------- 
E------------------------------- 

Against the grain 4xs 
A--------------------------------- 
B--1---0-------------------------- 
G--------2-0---------------------- 
D------------2-0-2---------------- 
A--------------------------------- 
E---------------------------------


Текст, аккорды и табулатура для песни "Against The Grain", исполняет "Bad Religion".
Используемые в песне аккорды можно найти в разделе Как брать аккорды. Аккорды для шестиструнной гитары. Другие песни можно найти на нашем сайте, воспользовавшись алфавитным указателем вверху страницы.


 
Ошибка в тексте? Выделите ошибку и нажмите Ctrl+Enter