BAD NEWS - WARRIORS OF GENGHIS KHAN
                     From the Album BAD NEWS
                     Copyright 1987 EMI
                     Version 1.0 - JAN 2001

Transcribed by: REAPER

For Questions, Comments, Newest Version, or Corrections contact
(YOUR NAME): at (YOUR E-MAIL ADDRESS)

Check Out Death Warp, With More Transcriptions On It:
 http://www.wam.umd.edu/~ekubica

..  - palm mute          /  - slide up to
   - slide down to      ~  - vibrato
 h  - hammer on          b  - bend
 p  - pull off            Suffixes for bend
                          ph - pinch harmonic
                           f - full bend    h - half bend
*  - see comment           r - release      t - tap bend
X  - percussion mute       ~ - vibrato bend
@  - slight palm mute     () - ghost note, sustained note

Tune Gtr to E (almost)



Riff A
|--------------------------------------------------------------------|
|--------------------------------------------------------------------|
|--------------------------------------------------------------------|Gtr 
|--------------------------------------------------------------------| I
|--------------------------------------------------------------------|
|0-0-3-0-5-0-6-0-5-0-3-0-0-0-0--0-0-3-0-5-0-6-0-5-3-0-0-0-0----------|
|                                                                    |
|--------------------------------------------------------------------|
|--------------------------------------------------------------------|
|------------------------------7/9----9-9-9-----7--9-9-9-------------|Gtr 
|------------------------------7/9----9-9-9-----7--9-9-9-------------| II
|------------------------------5/7----7-7-7-----5--7-7-7-------------|
|0-0-3-0-5-0-6-0-5-0-3-0-0-0-0---------------------------------------|

Riff B
|--------------------------------------------------------------------|
|--------------------------------------------------------------------|
|--------------------------------------------------------------------|Gtr
|--------------------------------------------------------------------| I+II
|--------------------------------------------------------------------|
|0-0-0-0--0-0-0-0--0-0-3-0-5-0-6-0-5-0-3-0-0-0-0---------------------|

Riff C (chorus)                                                                    
|--------------------------------------------------------------------|
|--------------------------------------------------------------------|
|----7--------5------4-----------------------------------------------|
|----7--------5------4-----------------------------------------------|
|----5--------3------2-----------------------------------------------|
|------------------------0-0-3-0-5-0-6-0-5-0-3-0-0-00----------------|

Riff D
|--------------------------------------------------------------------|
|--------------------------------------------------------------------|
|----7-----5-----7-----9---------------------------------------------|
|----7-----5-----7-----9---------------------------------------------|
|----5-----3-----5-----7---------------------------------------------|
|--------------------------------------------------------------------|
Riff E
|--------------------------------------------------------------------|
|--------------------------------------------------------------------|
|----5------------7--------------------------------------------------|
|----5------------7--------------------------------------------------|
|----3------------5--------------------------------------------------|
|--------------------------------------------------------------------|
Riff F
|--------------------------------------------------------------------|
|--------------------------------------------------------------------|
|-----10--9--------------------9-10----------------------------------|
|-----------10--9--7---7--9-10---------------------------------------|
|--------------------------------------------------------------------|
|--------------------------------------------------------------------|


Текст, аккорды и табулатура для песни "Warriors Of Genghis Kahn", исполняет "Bad News".
Используемые в песне аккорды можно найти в разделе Как брать аккорды. Аккорды для шестиструнной гитары. Другие песни можно найти на нашем сайте, воспользовавшись алфавитным указателем вверху страницы.


 
Ошибка в тексте? Выделите ошибку и нажмите Ctrl+Enter