-------------------------------------------------------------------------------
			     Burnin' Sky - Bad Company
-------------------------------------------------------------------------------
Tabbed by: Chance Kilgore
Email: 

Tuning:EBGDAe

e|-----------|
B|-----------|
G|-----------| x5 For the Intro
D|3-5-x-3-5--|
A|3-5-x-3-5--|
E|1-3-x-1-3--|
  The sky        Is burnin'     I believe my souls on fi--re   
e|-------------------------------------------------------------------------|
B|-------------------------------------------------------------------------|
G|------------------3-5-x-3-5--------5-------3-----------------------------|
D|----3-5-x-3-5-----3-5-x-3-5--------5-------3--------3-5-x-3-5------------/
A|----3-5-x-3-5-----1-3-x-1-3--------3-------1--------3-5-x-3-5------------|
E|----1-3-x-1-3---------------------------------------1-3-x-1-3------------|
  You are        I'm learnin    The key to my desire
e|-------------------------------------------------------------------------|
B|-------------------------------------------------------------------------|
G|------------------3-5-x-3-5--------5-------3-----------------------------|
D|----3-5-x-3-5-----3-5-x-3-5--------5-------3--------3-5-x-3-5------------/
A|----3-5-x-3-5-----1-3-x-1-3--------3-------1--------3-5-x-3-5------------|
E|----1-3-x-1-3---------------------------------------1-3-x-1-3------------|

Follow this for the verse.

The chorus is:

  Waiting for the van to arrive.
e|--------------------------------------------------------|
B|--------------------------------------------------------|
G|5-----5----x3-----3---x---------------------------------|
D|5-----5----x3-----3---x3--5--5--5--5--5--5--------------|
A|3-----3----x1-----1---x3--5--5--5--5--5--5--------------|
E|-----------------------1--3--3--3--3--3--3--------------|
  The prisoners were lined up outside.
e|--------------------------------------------------------|
B|--------------------------------------------------------|
G|5-----5----x3-----3---x---------------------------------|
D|5-----5----x3-----3---x3--5--5--5--5--5--5--------------|
A|3-----3----x1-----1---x3--5--5--5--5--5--5--------------|
E|-----------------------1--3--3--3--3--3--3--------------|
  Jumped a wall hitched a ride and now I'm here to stay.
e|--------------------------------------------------------|
B|--------------------------------------------------------|
G|5-----5----x3-----3---x---------------------------------|
D|5-----5----x3-----3---x3--5--5--5--5--5--5--------------|
A|3-----3----x1-----1---x3--5--5--5--5--5--5--------------|
E|-----------------------1--3--3--3--3--3--3--------------|
  Love ya baby anyway.
e|--------------------------------------------------------|
B|--------------------------------------------------------|
G|5-----5----x3-------------------------------------------|
D|5-----5----x3-----3-5-x-3-5-----------------------------|
A|3-----3----x1-----3-5-x-3-5-----------------------------|
E|------------------1-3-x-1-3-----------------------------|

At the end just use the chorus riff to get you through. Heres the other lyrics.

THE SKY IS BURNIN
I BEILEVE MY SOULS ON FIRE
YOU ARE IґM LEARNING THE KEY TO MY DESIRE

RUN ACROSS THE COUNTRY FIELDS IN ALL TER RAIN
THEY HAD GUNS AND DOGS AND EVERY THING
SWAM A RIVER TRY`N TO LOSE MY TRAIL
BUT THEY CAUGHT ME UNDER THE BRIDGE OH YEAH

THE SKY IS BURNIN
I BELIEVE MY SOULS ON FIRE
YOU ARE IґM LEARNING THE KEY TO MY DESIRE

THE SKY IS BURNIN
I BELIEVE MY SOULS ON FIRE
YOU ARE IґM LEARNING THE KEY TO MY DESIRE

THE JUDGE SAID THIS MAN`S A DANGER TO HUMANITY
WE`RE GONNA LOCK HIM UP AND THROW AWAY THE KEY
NOW BABY YOUR LOVE HAS SENT ME TO JAIL
BUT I`D RATHER DIE THAN SEE YOU WITH ANOTHER MAN

WORKING ON THE RAILROAD EVERY DAY
BUT THEY CAN`T KEEP ME HERE
AND I`M GONNA STAY
I GOT TO GET OUTTA THIS PLACE
I`LL SEE YOU BABY 



| /  slide up
|   slide down
| h  hammer-on
| p  pull-off
| ~  vibrato
| +  harmonic
| x  Mute note
===============================================================================


Текст, аккорды и табулатура для песни "Burnin Sky", исполняет "Bad Company".
Используемые в песне аккорды можно найти в разделе Как брать аккорды. Аккорды для шестиструнной гитары. Другие песни можно найти на нашем сайте, воспользовавшись алфавитным указателем вверху страницы.


 
Ошибка в тексте? Выделите ошибку и нажмите Ctrl+Enter