-------------------------------------------------------------------------------
			     SONG NAME - Band Name
-------------------------------------------------------------------------------
Tabbed by: Animeguy
Email:

Tuning: normal tuning

intro:

e|--------------------------------------------------------------------------|
B|--------------------------------------------------------------------------|
G|--------------------------------------------------------------------------|
D|--------------------------------------------------------------------------|
A|--------------------------------------------------------------------------|
E|-(7)-9-9-9-9-(9)-12-12-12-12-(12)-5-5-5-5-5-5-5-5-------------------------|
repeat 1 more time

riff 1

e|--------------------------------------------------------------------------|
B|--------------------------------------------------------------------------|
G|--------------------------------------------------------------------------|
D|--------------------------------------------------------------------------|
A|-11-5-10-10-10-11-5-10-10-10----------------------------------------------|
E|-9--3-8-(8)-(8)-9-3-8-(8)-(8)---------------------------------------------|
repeat two more times with slight muting and more strums

riff 2

e|--------------------------------------------------------------------------|
B|--------------------------------------------------------------------------|
G|--------------------------------------------------------------------------|
D|--------------------------------------------------------------------------|
A|-15-15-15-15-15-11-10(Xon10)(Xon10)(Xon10)(Xon10)-------------------------|
E|-13-13-13-13-13-9--8-(Xon8)-(Xon8)-(Xon8)-(Xon8)--------------------------|

repeat once more, 
then repeat riff 1 with slight muting and more strums, 
then play riff 2 twice.

riff 3 part 1

Heavy Muting

e|--------------------------------------------------------------------------|
B|--------------------------------------------------------------------------|
G|--------------------------------------------------------------------------|
D|--------------------------------------------------------------------------|
A|-5-5-5-5-5-5-5-5-5-5-5-5-5-5-5-5------------------------------------------|
E|-3-3-3-3-3-3-3-3-3-3-3-3-3-3-3-3------------------------------------------|

riff 3

e|--------------------------------------------------------------------------|
B|--------------------------------------------------------------------------|
G|--------------------------------------------------------------------------|
D|--------------------------------------------------------------------------|
A|-7-7-7-8-8-8-7-7-7-8-8-8-7-3-5-5-5-5-5-5-5-5------------------------------|
E|-5-5-5-6-6-6-5-5-5-6-6-6-5-1-3-3-3-3-3-3-3-3------------------------------|

repeat 8 more times, then play riff 4 once.

riff 4

e|--------------------------------------------------------------------------|
B|--------------------------------------------------------------------------|
G|--------------------------------------------------------------------------|
D|--------------------------------------------------------------------------|
A|-7-7-7-8-8-8-7-7-7-8-8-8-8-8----------------------------------------------|
E|-5-5-5-6-6-6-5-5-5-6-6-6-6-6----------------------------------------------|

Solo:
I havent figured this one out

| /  slide up
|   slide down
| h  hammer-on
| p  pull-off
| ~  vibrato
| +  harmonic
| x  Mute note
=============================================================================


Текст, аккорды и табулатура для песни "Right Brigade", исполняет "Bad Brains".
Используемые в песне аккорды можно найти в разделе Как брать аккорды. Аккорды для шестиструнной гитары. Другие песни можно найти на нашем сайте, воспользовавшись алфавитным указателем вверху страницы.


 
Ошибка в тексте? Выделите ошибку и нажмите Ctrl+Enter