Intro   x6
G|-----------------------------------------------------------------
D|-0-0-0-0-0-0-0-0-0-0-0-0-0-0-0-0---------------------------------
A|-----------------------------------------------------------------
E|-----------------------------------------------------------------

1st Verse   
x5
G|-----------------------------------------------------------------
D|-----------------------------------------------------------------
A|-0-0-0-0-0-0-0-0-2-2-2-3-3-3-2-2-5-5-5-5-5-5-5-5-4h5-5-5-4h5-5-5-
E|-----------------------------------------------------------------

1st Chorus 
x2
G|-----------------------------------------------------------------
D|-3-3-3-3-3-3-3-3-------------------------------------------------
A|-----------------3-3-3-3-4-4-4-4-5-5-5-5-5-5-5-5-4h5-5-5-5-5-5-5-
E|-----------------------------------------------------------------
x2
G|-----------------------------------------------------------------
D|-----------------------------------------------------------------
A|-4h5-5-5-5-5-5-5-4h5-5-5-5-5-5-5-4h5-5-5-5-5-5-5-----------------
E|-----------------------------------------------------------------

2nd Verse
x4
G|-----------------------------------------------------------------
D|-0-0-0-0-0-0-0-0-2-2-2-3-3-3-3-2-5-5-5-5-5-5-5-5-5-5-5-5-5-5-5-5-
A|-----------------------------------------------------------------
E|-----------------------------------------------------------------

2nd Chorus
x2
G|-3-3-3-3-3-3-3-3-2-2-2-2-----------------------------------------
D|-------------------------3-3-5-5---------------------------------
A|---------------------------------4h5-5-5-5-5-5-5-4h5-5-5-5-5-5-5-
E|-----------------------------------------------------------------
x1
G|-----------------------------------------------------------------
D|-----------------------------------------------------------------
A|-4h5-5-5-5-5-5-5-5-4h5-5-5-5-5-5-5--hold-a measure---------------
E|-----------------------------------------------------------------

Breakdown
x12
G|-----------------------------------------------------------------
D|-----------------------------------------------------------------
A|-1-1-1-1-1-1-1-1-0-0-0-0-3-3-3-3---------------------------------
E|---------------------------------3-3-3-3-3-3-3-3-3-3-3-3-3-3-3---
  . . . . . . . . . . . . palm muted . . . . . . . . . . . . . . . 

Outro
G|-----------------------------------------------------------------
D|-----------------------------------------------------------------
A|-----------------------------------------------------------------
E|-3h4---------3-------------3----------------3--------------------
   . . . . let notes ring . . . . . . . . . . . . . . . . . . . . .

Good luck.. email me with any comments.. suggestions.. whatever
- [email protected]


Текст, аккорды и табулатура для песни "Banned In Dc", исполняет "Bad Brains".
Используемые в песне аккорды можно найти в разделе Как брать аккорды. Аккорды для шестиструнной гитары. Другие песни можно найти на нашем сайте, воспользовавшись алфавитным указателем вверху страницы.


 
Ошибка в тексте? Выделите ошибку и нажмите Ctrl+Enter