Band:Bad Brains
Song: At The Movies

tabbed by [email protected]

Intro

e-------8--7-8------8--7-8----10----8--7-8----9----8--7-8-------------|
B--10-----------8-----------------------------------------------------|
G---------------------------------------------------------------------|
D---------------------------------------------------------------------|
A---------------------------------------------------------------------|
E---------------------------------------------------------------------|

e---------------------------------------------------------------------|
B--10---10h11p10---8--10----------------------------------------------|
G---------------------------------------------------------------------|
D-----------------------------------7---------------------------------|
A-----------------------------------7---------------------------------|
E-----------------------------------5---------------------------------|


e---------------------------------------------------------------------|
B---------------------------------------------------------------------|
G-----------------------------9---------------------------------------|
D----7-7-7-7-7-7-7-7-7-7-7-7--9---------------------------------------|
A----7-7-7-7-7-7-7-7-7-5-5-5--7---------------------------------------|
E----5-5-5-5-5-5-5-5-5-5-5-5------------------------------------------|

Verse

e---------------------------------------------------------------------|
B---------------------------------------------------------------------|
G-----------------------------------6-6-6-6-6-6-6-6-6-7-7-7-7-7-7-7---|
D--7-7-7-7-7-7-7-7-6-6-6-6-6-6-6-6--6-6-6-6-6-6-6-6-7-7-7-7-7-7-7-7---|
A--7-7-7-7-7-7-7-7-6-6-6-6-6-6-6-6--4-4-4-4-4-4-4-4-5-5-5-5-5-5-5-5---|
E--5-5-5-5-5-5-5-5-4-4-4-4-4-4-4-4------------------------------------|


Chorus

e---------------------------------------------------------------------|
B---------------------------------------------------------------------|
G---------------------------------------------------------------------|
D---7--7----5--5----3--3----------------------------------------------|
A---7--7----5--5----3--3----------------------------------------------|
E---5--5----3--3----1--1----------------------------------------------|

Solo

e---13b-------------------12~~~~~~~~~-------------12~~~~~~~~~---------|
B--------12-11--12~~~~~~~-------------12~~~~~~~~~---------------------|
G---------------------------------------------------------------------|
D---------------------------------------------------------------------|
A---------------------------------------------------------------------|
E---------------------------------------------------------------------|


If any corrections are needed contact me


Текст, аккорды и табулатура для песни "At The Movies", исполняет "Bad Brains".
Используемые в песне аккорды можно найти в разделе Как брать аккорды. Аккорды для шестиструнной гитары. Другие песни можно найти на нашем сайте, воспользовавшись алфавитным указателем вверху страницы.


 
Ошибка в тексте? Выделите ошибку и нажмите Ctrl+Enter