Intro:
E1-1-1-1-1----1-3-0--------0-1---0-1--3/5-3-1-0---
B-------------------3-2--3------3---------------3-
G-------------------------------------------------
D-------------------------------------------------
A-------------------------------------------------
E-------------------------------------------------

Sub:(Brian)
E1-1-1-1---0-1-3-0---1---1-----0-1-3-0----0-1------0------0---
B--------3-------------3-----3----------2-----3--3---2--3---3-
G-------------------------------------------------------------
D-------------------------------------------------------------
A-------------------------------------------------------------
E-------------------------------------------------------------

(AJ)
E0/1---1----1-3-0----1---1----0-1-3-0----0-1------0------0----
B----3----3------------3----3----------2-----3--3---2--3---3--
G-------------------------------------------------------------
D-------------------------------------------------------------
A-------------------------------------------------------------
E-------------------------------------------------------------


Chorus:
E1-1-1-1-1---1-3-0------1-1-1-1-1---1-3-0------3-0-3-0-4-0-5-6-7-6-5-
B------------------3-2--------------------3-2------------------------
G--------------------------------------------------------------------
D--------------------------------------------------------------------
A--------------------------------------------------------------------
E--------------------------------------------------------------------

E0-1-1-----------------0-1-----0-1-3/5-3-1-0-----
B------3-1-1-0-2/3---3-------3---------------3---
G------------------------------------------------
D------------------------------------------------
A------------------------------------------------
E------------------------------------------------

Sub:(Kevin)
E1---1----0-1-3-0----1---1----1-3-0----0-1-0-----0-1------0----
B--3----3--------------3---3--------2------3---2-----3--3---3--
G--------------------------------------------------------------
D--------------------------------------------------------------
A--------------------------------------------------------------
E--------------------------------------------------------------

(Nick)
E0/1---1----0-1-3-0----0/1-1---1----0-1-3-0----3-4-0-1/0----0-0-1/2---3--6/7-7/8--
B----3----3------------------3---3----------2------------3----3-------------------
G---------------------------------------------------------------------------------
D---------------------------------------------------------------------------------
A---------------------------------------------------------------------------------
E---------------------------------------------------------------------------------

Chorus:
E1-1-1-1-1---1-3-0------1-1-1-1-1---1-3-0------3-0-3-0-4-0-5-6-7-6-5-
B------------------3-2--------------------3-2------------------------
G--------------------------------------------------------------------
D--------------------------------------------------------------------
A--------------------------------------------------------------------
E--------------------------------------------------------------------

E1-3-3-1-0-0---3/2/3----
B------------3----------    
G----------------------- 
D----------------------- 
A-----------------------
E-----------------------

(Howie D)
E0-------------0---------------0/1-----------0---1/2-2--
B--0-2-3-3---0---3--2-1-3/2/0------0-2-3-3-----3--------
G-------------------------------------------------------
D-------------------------------------------------------
A-------------------------------------------------------
E-------------------------------------------------------

E--------------0-----------------0---3/2/3--
B3-3-3-3---3-3---2---2-2---3-3-3---3--------
G-------------------------------------------
D-------------------------------------------
A-------------------------------------------
E-------------------------------------------

Solo:
E---0-1---0-1--3/5-3-1-0--------0-1-3/5-3-1-3/5-5---5-3-1-0----1-0---------
B-3------3----------------3---3------------------------------------3-2-0---
G------------------------------------------------------------------------3-
D--------------------------------------------------------------------------
A--------------------------------------------------------------------------
E--------------------------------------------------------------------------

E1-1-1--1-1-5-3-3-1-1----
B------------------------
G------------------------
D------------------------
A------------------------
E------------------------

Chorus:
E1-1-1-1-1---1-3-0------1-1-1-1-1---1-3-0------3-0-3-0-4-0-5-6-7-6-5-
B------------------3-2--------------------3-2------------------------
G--------------------------------------------------------------------
D--------------------------------------------------------------------
A--------------------------------------------------------------------
E--------------------------------------------------------------------

E--1-1---------------
B3-----3-1-1-0-2/3---
G--------------------
D--------------------
A--------------------
E--------------------


Текст, аккорды и табулатура для песни "Show Me The Meaning Of Being Lonely", исполняет "Backstreet Boys".
Используемые в песне аккорды можно найти в разделе Как брать аккорды. Аккорды для шестиструнной гитары. Другие песни можно найти на нашем сайте, воспользовавшись алфавитным указателем вверху страницы.


Слушать онлайн Show Me The Meaning Of Being Lonely


Backstreet BoysShow Me The Meaning Of Being Lonely на Яндекс.Музыке


 
Ошибка в тексте? Выделите ошибку и нажмите Ctrl+Enter