-------------------------------------------------------------------------------
           Show Me The Meaning Of Being Lonely - Backstreet Boys
-------------------------------------------------------------------------------
Tabbed by: IcyCinnamon
Email:[email protected]
Comments: This tab (like my other one) is meant to be played with the music. I hope that I did a good job!
(This tab was tabbed especially for Thanh, as a reminder for her
I'll always be there when she needs and she'll never be alone! aishiteru!)

e|----------------------------|
B|----------------------------|
G|----------------------------|
D|11-11-11-11-11--11-12-9-7-6-|
A|----------------------------|
E|----------------------------|

Verse 1
e|-----------------------------------------|
B|-----------------------------------------|
G|-----------------------------------------|
D|7-7-7-7--4-6-7--9-6--6/7-4-7--4-6-7--9-6-|
A|-----------------------------------------|
E|-----------------------------------------|

e|---------------------|
B|---------------------|
G|---------------------|
D|2-6--7-4--4--6-3-4-6-|
A|---------------------|
E|---------------------|

Verse 2
e|-------------------------------------|
B|-------------------------------------|
G|-------------------------------------|
D|7--4-7--4-7--9-6--7--4-7--4-6-7--9-6-|
A|-------------------------------------|
E|-------------------------------------|

e|----------------------|
B|----------------------|
G|----------------------|
D|2-6--7-4--4--6-3--4-6-|
A|----------------------|
E|----------------------|

Chorus 1
e|-------------------------------------------|
B|-------------------------------------------|
G|6-6-6-6-6--6-7-4-2-1--6-6-6-6-6--6-7-4-2-1-|
D|-------------------------------------------|
A|-------------------------------------------|
E|-------------------------------------------|

e|--------------------------------------------------|
B|--------------------------------------------------|
G|9-6-9--6-10--6-10--11-13-1311------7-7-7-2-2-1-4-|
D|--------------------------------------------------|
A|--------------------------------------------------|
E|--------------------------------------------------|

Verse 3
e|-----------------------------------------|
B|-----------------------------------------|
G|-----------------------------------------|
D|7-7-7-7--4-6-7--9-6--6/7-4-7--4-6-7--9-6-|
A|-----------------------------------------|
E|-----------------------------------------|

e|---------------------|
B|---------------------|
G|---------------------|
D|2-6--7-4--4--6-3-4-6-|
A|---------------------|
E|---------------------|

Verse 4
e|-------------------------------------|
B|-------------------------------------|
G|-------------------------------------|
D|7--4-7--4-7--9-6--7--4-7--4-6-7--9-6-|
A|-------------------------------------|
E|-------------------------------------|

e|------------------------|
B|------------------------|
G|--9-6-4--4--4-6--6-9-11-|
D|2-----------------------|
A|------------------------|
E|------------------------|

Chorus 2
e|-------------------------------------------|
B|-------------------------------------------|
G|6-6-6-6-6--6-7-4-2-1--6-6-6-6-6--6-7-4-2-1-|
D|-------------------------------------------|
A|-------------------------------------------|
E|-------------------------------------------|

e|------------------------------------------------------------|
B|------------------------------------------------------------|
G|9-6-9--6-10--6-10--11-13-1311------6-11-9-9-6-11-9------13-|
D|------------------------------------------------------------|
A|------------------------------------------------------------|
E|------------------------------------------------------------|

Verse 5
e|-------------------------------------------------|
B|-------------------------------------------------|
G|8--1-3-4-4--1-8-6--4-3-41--8--1-3-4-4--6--4-8-8-|
D|-------------------------------------------------|
A|-------------------------------------------------|
E|-------------------------------------------------|

e|-------------------------------|
B|-------------------------------|
G|4-4-4-4--4-4/6-3--8-11-11-8-13-|
D|-------------------------------|
A|-------------------------------|
E|-------------------------------|

e|---------------------------------------------------------------------------|
B|---------------------------------------------------------------------------|
G|---------------------------------------------------------------------------|
D|---------------------------------------------------------------------------|
A|---------------------------------------------------------------------------|
E|---------------------------------------------------------------------------|

Chorus 3
e|-------------------------------------------|
B|-------------------------------------------|
G|8-8-8-8-8--8-9-6-4-6--8-8-8-8-8--8-9-6-4-3-|
D|-------------------------------------------|
A|-------------------------------------------|
E|-------------------------------------------|

e|----------------------------------------------------|
B|----------------------------------------------------|
G|11-8-11--8-12--8-12--13-15-1513------9-9-9-4-4-3-6-|
D|----------------------------------------------------|
A|----------------------------------------------------|
E|----------------------------------------------------|

Chorus 4
e|-------------------------------------------|
B|-------------------------------------------|
G|8-8-8-8-8--8-9-6-4-6--8-8-8-8-8--8-9-6-4-3-|
D|-------------------------------------------|
A|-------------------------------------------|
E|-------------------------------------------|

e|---------------------------------------------------------|
B|---------------------------------------------------------|
G|11-8-11--8-12--8-12--13-15-1513------9-9-9-4-4-3------4-|
D|---------------------------------------------------------|
A|---------------------------------------------------------|
E|---------------------------------------------------------|



| /  slide up
|   slide down

===============================================================================


Текст, аккорды и табулатура для песни "Show Me The Meaning Of Being Lonely", исполняет "Backstreet Boys".
Используемые в песне аккорды можно найти в разделе Как брать аккорды. Аккорды для шестиструнной гитары. Другие песни можно найти на нашем сайте, воспользовавшись алфавитным указателем вверху страницы.


Слушать онлайн Show Me The Meaning Of Being Lonely


Backstreet BoysShow Me The Meaning Of Being Lonely на Яндекс.Музыке


 
Ошибка в тексте? Выделите ошибку и нажмите Ctrl+Enter