Вступление:

D| --------------------------------------------------------------9-10-7 |
A| 7-7-7-7-7-7-7-7-8-7-7-7-7-7-7-7-7-8-7-7-7-7-7-7-7-7-8-7-7-7-7-7--8-5 | 2раза
 
D| 9--10-9--10-9--10-9--10-9-7 |
A| 7---8-7---8-7---8-7---8-7-5 | 2раза

D| 9-9-9-9--10--9-9-9-9--10--9-9-9-9--10-9--10-9-7 |
A| 7-7-7-7---8--7-7-7-7---8--7-7-7-7---8-7---8-7-5 | 2раза

A| 7-7-7-7-7-7-7-7--8-8-8-8--5-5-5-5 | 2раза

Куплет:

D| 9-9-9-9-9-9-9-9-10-10-10-10-7-7-7-7 |
A| 7-7-7-7-7-7-7-7--8--8--8--8-5-5-5-5 | поаторяется


Припев:

D| 9-9-9-9-9-9-9-9--7-7-7-7-7-7-7-7      |
A| 7-7-7-7-7-7-7-7--5-5-5-5-5-5-5-5      |
                                            повторяется 
D| 9-9-9-9-9-9-9-9--10-10-10-10--7-7-7-7 |
A| 7-7-7-7-7-7-7-7---8--8--8--8--5-5-5-5 |
 

1:
Я прикрыл свое небо руками
по началу я был лишь прохожий
но какие то мерзкие рожи
протаранили тело ногами
и я словно пречистый христос
воображал себя в чем тут дело
спатыкался и брел неумело
капля крови памятых волос

Припев:
так надо убивать врагов 
там где-то ответ  
небо цвета потертых джинсов
небо цвета прожатых лет

проигрыш:

A| подобрать не сложно, но мудрено немного !!!

2:
и однажды в чужем мне квартале
на окраине странного города
задыхаясь от рваного холода
написал в облаках белой стали

припев:

проигрыш:
D| 9--10-9--10-9--10-9--10-9-7 |
A| 7---8-7---8-7---8-7---8-7-5 | 2раза

D| 9-9-9-9--10--9-9-9-9--10--9-9-9-9--10-9--10-9-7 |
A| 7-7-7-7---8--7-7-7-7---8--7-7-7-7---8-7---8-7-5 | 2раза

D| 9-9-9-9-9-9-9-9-10-10-10-10-7-7-7-7 |
A| 7-7-7-7-7-7-7-7--8--8--8--8-5-5-5-5 |4раза 

3:
время поставит жирную точку
прощай самолеты и поезда
ты что спешишь себе в некуда
останутся эти затертый строчки

припев: 2раза

концовка:
D| --------------------------------------------------------------9-10-7 |
A| 7-7-7-7-7-7-7-7-8-7-7-7-7-7-7-7-7-8-7-7-7-7-7-7-7-7-8-7-7-7-7-7--8-5 | 2раза

D| 9 |
A| 7 |


Текст, аккорды и табулатура для песни "Небо цвета потертых джинсов", исполняет "Азъ".
Используемые в песне аккорды можно найти в разделе Как брать аккорды. Аккорды для шестиструнной гитары. Другие песни можно найти на нашем сайте, воспользовавшись алфавитным указателем вверху страницы.


 
Ошибка в тексте? Выделите ошибку и нажмите Ctrl+Enter