Artist: Axel Rudi Pell
Song:   Tear Down The Walls
Album:  The Masquerade Ball

Tabbed by: Christian Johansson
E-mail:    [email protected]

Tune down 1/2 step!

Intro:

E--------------------I-
B-----3-----------3--I-
G-----2-----1--1--2--I-  (x2)
D--4--0--2--2--2--0--I-
A--4--0--2--2--2--0--I-
E--2-----0-----------I-
Guitar 1:
E--------------------------------I------I-
B-----3-----------------------3--I------I-
G-----2-----------------1--1--2--I------I-  (x4)
D--4--0--2--------------2--2--0--I--2---I-
A--4--0--2-2-2-2-2-2-2--2--2--0--I--2---I-
E--2-----0-0-0-0-0-0-0-----------I--0---I-
Guitar 2:
E---------------------------I-
B---------------------------I-
G---------------------------I-  (x4)
D--4--6--7--6--9--7--6--7---I-
A---------------------------I-
E---------------------------I-
1: Are we hypnotised...
2: Can we open our ears...
E-----------------------------------------------------------------I-
B-----------------------------------------------------------------I-
G-----------------------------------------------------------------I-
D-----------------------------------------------------------------I-
A-4-4-4-4-4-4-4-4-4-4-4-4-4-4-4-4-4-4-4-4-4-4-4-4-4-4-4-4-4-4-4-4-I-
E-2-2-2-2-2-2-2-2-2-2-2-2-2-2-2-2-2-2-2-2-2-2-2-2-2-2-2-2-2-2-2-2-I-

E-------------------------------------------------------------I-
B-------------------------------------------------------------I-
G-------------------------------------------------------------I-  (x2)
D---------------------------------7-7-7-7-7-7-7-7-7-7-7-7-9-9-I-
A-2-2-2-2-2-2-2-2-2-2-2-2-2-2-2-2-5-5-5-5-5-5-5-5-5-5-5-5-7-7-I-
E-0-0-0-0-0-0-0-0-0-0-0-0-0-0-0-0-----------------------------I-
The moon was rising...
E--------------------------------------I-
B--5---3-------5---1---3-------5-------I-
G--5---4---7---5---2---4---7---5-------I-
D--7---5---9---7---3---5---9---7----2--I-
A-----------------------------------2--I-
E-----------------------------------0--I-
Chorus: Tear down the walls...
E--------------------I-----I-
B-----3-----------3--I-----I-
G-----2-----1--1--2--I-----I-  (x4)
D--4--0--2--2--2--0--I--2--I-
A--4--0--2--2--2--0--I--2--I-
E--2-----0-----------I--0--I-


Текст, аккорды и табулатура для песни "Tear Down The Walls", исполняет "Axel Rudi Pell".
Используемые в песне аккорды можно найти в разделе Как брать аккорды. Аккорды для шестиструнной гитары. Другие песни можно найти на нашем сайте, воспользовавшись алфавитным указателем вверху страницы.


 
Ошибка в тексте? Выделите ошибку и нажмите Ctrl+Enter