Tuning standart - E B G D A E
For 2 Guitars
Gtr.1-acoustic
Gtr.2-electric
Intro (piano arranged for guitar):
Git.1
   G            Bm
E-----------------------------------|
B-----------------------------------|
G--4-----4----------4-----4---------|Repeat
D--5-----5----------4-----4---------|  8x
A----------------------2-----2------|
E-----3------3--2----------------2--|
Na na .......
Verse:
Git.1 (continue)
   G            Bm
E-----------------------------------|
B-----------------------------------|
G--4-----4----------4-----4---------|
D--5-----5----------4-----4---------|
A----------------------2-----2------|
E-----3------3--2----------------2--|
I miss you,
miss you so bad
I don't forget you
oh it's so sad
Than
Git.1
   G            Bm
E-----------------------------------|
B-----------------------------------|
G--4-----4----------4-----4---------|
D--5-----5----------4-----4---------|
A----------------------2-----2------|
E-----3------3--2----------------2--|
				    |
Git.2				    |
   C				    |
E------0----------------------------|
B-----1-----------------------------|
G----0------------------------------|
D---2-------------------------------|
A--3--------------------------------|
E-----------------------------------|
I hope you can hear me
I remember it clearly
Chorus:
Gtr.1
Play chords Em  Am(V)  G   D(Dsus2)
Gtr.2 (light distortion)
   E5      A5       G5       D5
E----------------------------------|
B----------------------------------|
G----------------------------7-----|
D--2-------7--------5--------7-----|
A--2-------7--------5--------5-----|
E--0-------5--------3--------------|
The day you slipped away
Was the day I founded I won't be the same
End:
E--------|
B--------|
G--------|
D-/7--5--|
A--------|
E--------|
Verse 2:
Git.1
   G            Bm
E-----------------------------------|
B-----------------------------------|
G--4-----4----------4-----4---------|
D--5-----5----------4-----4---------|
A----------------------2-----2------|
E-----3------3--2----------------2--|
                                    |
Gtr.2 				    |
   G            Bm		    |
P.M.................................|
E-----------------------------------|
B-----------------------------------|
G-----------------------------------|
D-----------------------------------|
A-------------------2-2-2-2---------|
E--3-3-3-3--------------------------|
Na na
nanana  na na
I didn't get around to kiss you
Goodbuy on my hand
I wished that I could see you again
I know that I can't
Git.1
   G            Bm
E-----------------------------------|
B-----------------------------------|
G--4-----4----------4-----4---------|
D--5-----5----------4-----4---------|
A----------------------2-----2------|
E-----3------3--2----------------2--|
				    |
Git.2				    |
   C				    |
E-----------------------------------|
B-----------------------------------|
G--5--------------------------------|
D--5--------------------------------|
A--3--------------------------------|
E-----------------------------------|
I hope you can hear me
I remember it clearly
Chorus:
Gtr.1
Play chords Em  Am(V)  G   D(Dsus2)
Gtr.2 (light distortion)
   E5      A5       G5       D5
E----------------------------------|
B----------------------------------|
G----------------------------7-----|
D--2-------7--------5--------7-----|
A--2-------7--------5--------5-----|
E--0-------5--------3--------------|
The day you slipped away
Was the day I founded I won't be the same
Break:
Gtr.1
   Am      Em      G       C
E--5-------0-------3-------0-------|
B--5-------0-------3-------1-------|
G--5-------0-------0-------0-------|
A--7-------2-------0-------2-------|
D--7-------2-------2-------3-------|
E--5-------0-------3-------0-------|
				   |
Gtr.2				   |
   A5      E5      G5      C5      |
P.M.......................         |
E----------------------------------|
B----------------------------------|
G--------------------------5-------|
A--------------------------5-------|
D--------------------------3-------|
E--5-5-5-5-0-0-0-0-3-3-3-3---------|
I had my wake up
Won't you wake up
I keep asking why
Gtr.1
   Em      Am      G       D
E--0-------5-------3-------2-------|
B--0-------5-------3-------3-------|
G--0-------5-------0-------2-------|
A--2-------7-------0-------0-------|
D--2-------7-------2---------------|
E--0-------5-------3---------------|
				   |
Gtr.2				   |
   E5      A5      G5      D5      |
P.M.......................         |
E----------------------------------|
B----------------------------------|
G--------------------------7-------|
A--------------------------7-------|
D--------------------------5-------|
E--0-0-0-0-5-5-5-5-3-3-3-3---------|
And I can't take it
I wasn't freaked
Happen yoy passed by
Gtr.1
   Em      Am      G       D
E--0-------5-------3-------2-------|
B--0-------5-------3-------3-------|
G--0-------5-------0-------2-------|
A--2-------7-------0-------0-------|
D--2-------7-------2---------------|
E--0-------5-------3---------------|
				   |
Gtr.2				   |
   E5      A5      G5      D5      |
P.M.......................         |
E----------------------------------|
B----------------------------------|
G--------------------------7-------|
A--------------------------7-------|
D--------------------------5-------|
E--0-0-0-0-5-5-5-5-3-3-3-3---------|
Now you've gone .......
Than the Chorus:
Gtr.1
Play chords Em  Am(V)  G   D(Dsus2)
Gtr.2 (light distortion)
   E5      A5       G5       D5
E----------------------------------|
B----------------------------------|
G----------------------------7-----|
D--2-------7--------5--------7-----|
A--2-------7--------5--------5-----|
E--0-------5--------3--------------|
The day you slipped away
Was the day I founded I won't be the same
End of song:
Gtr.1 play chords
Bm      G
I miss you.
Happy, как говорится, End.
г. Невинномысск 2004


Текст, аккорды и табулатура для песни "Slipped Away", исполняет "Avril Lavigne".
Используемые в песне аккорды можно найти в разделе Как брать аккорды. Аккорды для шестиструнной гитары. Другие песни можно найти на нашем сайте, воспользовавшись алфавитным указателем вверху страницы.


Слушать онлайн Slipped Away


Avril LavigneSlipped Away на Яндекс.Музыке


 
Ошибка в тексте? Выделите ошибку и нажмите Ctrl+Enter