*******************************
                  Avril Lavigne-He Wasn't
              *******************************


Song:He Wasn't
Artist:Avril Lavigne
Tabbed by: Steven Bryant (elix997)
[email protected]
Standard tuning (EADGBE)


Intro and Verse:
(kinda weird. what you do is hold a  3 finger D power chord on the A string. take off 
ring finger and play the first note (which should end up being a G power chord), then add 
ring finger and play the rest of the notes. listen to the song and you'll understand.)

e------------------------------------------------------------|
B------------------------------------------------------------|
G---7-7-7-7--7--7-7-7-7-7--7--7-5-5-5-5--5--5-5-5-5-5--5--5--|
D---5-7-7-7--7--7-5-7-7-7--7--7-3-5-5-5--5--5-3-5-5-5--5--5--|
A--(5)5-5-5--5--5(5)5-5-5--5--5(3)3-3-3--3--3(3)3-3-3--3--3--|
E------------------------------------------------------------|

the day i hate (starts at hate)

e------------------------------------------------------------|
B------------------------------------------------------------|
G---3---x-x-3-3--2--x--x-x-----------------------------------|
D---3---x-x-3-3--2--x--x-x-----------------------------------|
A---1---x-x-1-1--0--x--x-x-----------------------------------|
E------------------------------------------------------------|

Pre Chorus:

Sit on my bed alone...

e------------------------------------------------------------|
B------------------------------------------------------------|
G------------------------------------------------------------|
D---3--3--3-3---2--2--2-2--3--3--3-3--2----slide-------------|
A---3--3--3-3---2--2--2-2--3--3--3-3--2----------up----------|
E---1--1--1-1---0--0--0-0--1--1--1-1--0-------------randomly-|


Chorus:

He Wasn't what I wanted...

e-------------------------------------------------------------------|
B-------------------------------------------------------------------|
G---7-7-7-7-7-7-7-7-7-7-7-7-7-7-7-7---------------------------------|
D---7-7-7-7-7-7-7-7-7-7-7-7-7-7-7-7-5-5-5-5-5-5-5-5-5-5-5-5-5-5-5-5-|  (x2)
A---5-5-5-5-5-5-5-5-5-5-5-5-5-5-5-5-5-5-5-5-5-5-5-5-5-5-5-5-5-5-5-5-|
E-----------------------------------3-3-3-3-3-3-3-3-3-3-3-3-3-3-3-3-|

Post Chorus (first time):

Hey, hey, hey..
e------------------------------------------------------------|
B------------------------------------------------------------|
G--x-x-7-x-x-x-7-x-x-x-7-x-x-x-x-5/7-x-7-x-x-x-7-x--pick-----|
D--x-x-7-x-x-x-7-x-x-x-7-x-x-x-x-5/7-x-7-x-x-x-7-x----slide--|
A--x-x-5-x-x-x-5-x-x-x-5-x-x-x-x-3/5-x-5-x-x-x-5-x-----------|
E------------------------------------------------------------|

Post Chorus (second time):

Uh oh    uh uh uh...
e------------------------------------------------------------------|
B------------------------------------------------------------------|
G--7-7-7-7-7-7-7-7-7-7-7-7-7-7-7-7---------------------------------|
D--7-7-7-7-7-7-7-7-7-7-7-7-7-7-7-7-5-5-5-5-5-5-5-5-5-5-5-5-5-5-5-5-|  (x2)
A--5-5-5-5-5-5-5-5-5-5-5-5-5-5-5-5-5-5-5-5-5-5-5-5-5-5-5-5-5-5-5-5-|
E----------------------------------3-3-3-3-3-3-3-3-3-3-3-3-3-3-3-3-|


Bridge (not too sure about this part..I'm not sure if it's the EXACT thing
anyway...but it sounds good.)

Na na na na na....
e-----------------------------------------------------------|
B-----------------------------------------------------------|
G--5--5--9--9--7--7--7--7--5--5--9--9--7--7--7--7-----------|
D--5--5--9--9--7--7--7--7--5--5--9--9--7--7--7--7-----------|   (x2)
A--3--3--7--7--5--5--5--5--3--3--7--7--5--5--5--5-----------|
E-----------------------------------------------------------|

Pre Chorus (only difference is palm muting):

Sit on my bed alone

e------------------------------------------------------------|
B------------------------------------------------------------|
G------------------------------------------------------------|
D---3-3-3-3-3-3-3-3-2-2-2-2-2-2-2-2-3-3-3-3-3-3-3-3-2~~------|
A---3-3-3-3-3-3-3-3-2-2-2-2-2-2-2-2-3-3-3-3-3-3-3-3-2~~------|
E---1-1-1-1-1-1-1-1-0-0-0-0-0-0-0-0-1-1-1-1-1-1-1-1-0~~------|
    ...............................................

Chorus (only difference is palm muting):

He Wasn't what I wanted...

e-------------------------------------------------------------------|
B-------------------------------------------------------------------|
G---7-7-7-7-7-7-7-7-7-7-7-7-7-7-7-7---------------------------------|
D---7-7-7-7-7-7-7-7-7-7-7-7-7-7-7-7-5-5-5-5-5-5-5-5-5-5-5-5-5-5-5-5-|
A---5-5-5-5-5-5-5-5-5-5-5-5-5-5-5-5-5-5-5-5-5-5-5-5-5-5-5-5-5-5-5-5-|
E-----------------------------------3-3-3-3-3-3-3-3-3-3-3-3-3-3-3-3-|
    .......................

e-------------------------------------------------------------------|
B-------------------------------------------------------------------|
G---7-7-7-7-7-7-7-7-7-7-7-7-7-7-7-7---------------------------------|
D---7-7-7-7-7-7-7-7-7-7-7-7-7-7-7-7-5-5-5-5-5-5-5-5-5-5-5-5-5-5-5-5-|
A---5-5-5-5-5-5-5-5-5-5-5-5-5-5-5-5-5-5-5-5-5-5-5-5-5-5-5-5-5-5-5-5-|
E-----------------------------------3-3-3-3-3-3-3-3-3-3-3-3-3-3-3-3-|


Post Chorus:

Uh oh    uh uh uh...
e------------------------------------------------------------------|
B------------------------------------------------------------------|
G--7-7-7-7-7-7-7-7-7-7-7-7-7-7-7-7---------------------------------|
D--7-7-7-7-7-7-7-7-7-7-7-7-7-7-7-7-5-5-5-5-5-5-5-5-5-5-5-5-5-5-5-5-|  (x2)
A--5-5-5-5-5-5-5-5-5-5-5-5-5-5-5-5-5-5-5-5-5-5-5-5-5-5-5-5-5-5-5-5-|
E----------------------------------3-3-3-3-3-3-3-3-3-3-3-3-3-3-3-3-|

Outro:

e-------------------------------------------------------------------|
B-------------------------------------------------------------------|
G------5--5--9--9--7~~----------------------------------------------|
D------5--5--9--9--7~~----------------------------------------------|
A------3--3--7--7--5~~----------------------------------------------|
E-------------------------------------------------------------------|


Tab Legend

(0)-Ghost note
/-slide
~-let ring (NOT vibrato)
...-palm mute


Questions? Comments?
Hit me up
[email protected]
AIM screenames-stevn53091   elix997

Please Rate!!


Текст, аккорды и табулатура для песни "He Wasnt", исполняет "Avril Lavigne".
Используемые в песне аккорды можно найти в разделе Как брать аккорды. Аккорды для шестиструнной гитары. Другие песни можно найти на нашем сайте, воспользовавшись алфавитным указателем вверху страницы.


 
Ошибка в тексте? Выделите ошибку и нажмите Ctrl+Enter