^ = Play Note Repeatedly as Needed 

(1X) 
G|--5-----------------------------------------------| 
D|--------------------------------------------------| 
A|------3---3-1-------------3--3-5-6-5-3------------| 
E|--------------4---1---3----------------4---1---3--| 
^ 
(2X) 
G|--------------------------------------------------| 
D|--------------------------------------------------| 
A|--3-55-66-55-33---------3-55-66-55-33----------3--| 
E|----------------4--1-3-----------------4--1-3-----| 
^ ^ ^ ^ ^ ^ ^ ^ 
(2X) 
G|---------------------------------------| 
D|---------------------------------------| 
A|--3333-5555-6666-----------------------| 
E|-----------------6666--444444--333333--| 

(1X) 
G|----------------------------| 
D|----------------------------| 
A|--333--555--666-------------| 
E|-----------------666--4--3--| 

(1X) 
G|-------------------------------------------------| 
D|-------------------------------------------------| 
A|--3333-5555-6666-----------------------66666666--| 
E|-----------------6666--444444--333333------------| 

(1X) 
G|-----------------3--------------------| 
D|--------6----5-6----------6----5-6-3--| 
A|--3-5-6----6--------3-5-6----6--------| 
E|--------------------------------------| 

(2X) 
G|-----------------------------------------|---------| 
D|-----------------------------------------|----2-5--| 
A|--33333333-----------666666666-----------|--3------| 
E|-----------4444-444------------6666-666--|---------| 

(1X) 
G|-----------------------------------------------------------------------| 
D|-----------------------------------------------------------------------| 
A|--3--3-33-3-33--------3--3-33-3-33--------3--------3--3-33-3-33--------| 
E|---------------44-11---------------44-11----44-11---------------44-11--| 
^ ^ ^ ^ ^ ^ ^ ^ ^ ^ 
(6X) 
G|------------------------------------------| 
D|------------------------------------------| 
A|--33333333--11111111------------11111111--| 
E|----------------------44444444------------| 

(3X) 
G|------------------------------------------------------------55-33--------| 
D|--------55-33--------------------33-55----------------------------55-33--| 
A|--33333-------66-55--------55-66---------------------333333--------------| 
E|--------------------666666-------------444444-666666---------------------| 

(1X) 
G|-------------------------------------------------| 
D|--------55-33--------------------33-55-----------| 
A|--33333-------66-55--------55-66--------------3--| 
E|--------------------666666--------------4--6-----| 

(1X) 
G|---------------------------3--| 
D|---------------------5---3----| 
A|--3---6--5---3--5--6----------| 
E|------------------------------| 

(4X) 
G|----------------------33--44--| 
D|-------------3-3-55-----------| 
A|--33--5-6-56------------------| 
E|------------------------------| 

(4X) 
G|------------------------|--------------3--4--| 
D|------------------------|-------2-3-5--------| 
A|--5--5-6-5-6-5--5--8-7--|--5--5--------------| 
E|------------------------|--------------------| 

(1X) 
G|---------------------------------------| 
D|---------------------------------------| 
A|--3------------3--3-5-6-5-3------------| 
E|-----4--1--3----------------6-4--1--3--| 

(1X) 
G|--------------------------------------------------| 
D|--------------------------------------------------| 
A|--3-55-66-55-33---------3-55-66-55-33----------3--| 
E|----------------4--1-3-----------------4--1-3-----| 
^ ^ ^ ^ ^ ^ ^ ^ 
(4X) 
G|------------------------------------------| 
D|------------------------------------------| 
A|--33333333--11111111------------11111111--| 
E|----------------------44444444------------| 

(4X) 
G|------------------------------------------------------------55-33--------| 
D|--------55-33--------------------33-55----------------------------55-33--| 
A|--33333-------66-55--------55-66---------------------333333--------------| 
E|--------------------666666-------------444444-666666---------------------| 

(3X) 
G|------------------------------------------| 
D|------------------------------------------| 
A|--33333333--11111111------------11111111--| 
E|----------------------44444444------------| 

(1X) 
G|-----------------------------------| 
D|-----------------------------------| 
A|--33333333-----------------1----3--| 
E|------------11111111--4------------| 
 

================================================================================


Текст, аккорды и табулатура для песни "Second Heartbeat", исполняет "Avenged Sevenfold".
Используемые в песне аккорды можно найти в разделе Как брать аккорды. Аккорды для шестиструнной гитары. Другие песни можно найти на нашем сайте, воспользовавшись алфавитным указателем вверху страницы.


Слушать онлайн Second Heartbeat


Avenged SevenfoldSecond Heartbeat на Яндекс.Музыке


 
Ошибка в тексте? Выделите ошибку и нажмите Ctrl+Enter