-----------------------------------------------------------------
Show Me How To Live – Audioslave
-----------------------------------------------------------------
Tabbed by: romanbirg
Email: [email protected]

this is my first tab, so go easy, this song is very addictive, so I made a tab.
lol. But im sure this tab is about 97% correct, if not make some changes. 
 
 
| h hammer-on
| p pull-off
| x Mute note
Tuning: Dadgbe

Intro - Distrortion
|---------------|
|---------------|
|----9----------|
|----9----2-----|   x4
|----7----2-----|
|---------2-----|

Verse – Heavy Distortion
|---------------------------------------------------------------|
|---------------------------------------------------------------|
|---------------------------------------------------------------|
|-------2-------------------------------------------------------|
|------2--------------------------------------------------------|
|---0h2----x0-x0-2---x0-x0-2-----7-7h8p7---5h7p0----2h5p0-------|

|-----------------------------|
|-----------------------------|
|-----------------------------|
|-------2---------------------|   [x2] [x3 (palm mute)] [x2]
|------2----------------------|
|---0h2---x0-x0-2---x0-x0-2---|


Chorus – Heavy Distortion
|------------------------------|
|------------------------------|
|------------------------------|
|--2----5-------------0h2------|    x8
|--2----5----------------------|
|--2----5-----0h2p0h2-----0----|


Verse – Heavy Distortion
|---------------------------------------------------------------|
|---------------------------------------------------------------|
|---------------------------------------------------------------|
|-------2-------------------------------------------------------|
|------2--------------------------------------------------------|
|---0h2----x0-x0-2---x0-x0-2-----7-7h8p7---5h7p0----2h5p0-------|

|-----------------------------|
|-----------------------------|
|-----------------------------|
|-------2---------------------|   [x2 (palm mute)]
|------2----------------------|
|---0h2---x0-x0-2---x0-x0-2---|


Chorus – Heavy Distortion
|------------------------------|
|------------------------------|
|------------------------------|
|--2----5-------------0h2------|    x8
|--2----5----------------------|
|--2----5-----0h2p0h2-----0----|

Bridge
The bridge requires a sound effect called step, if u have it just hit the note up
and down repeatedly with the very tip of ur pick if u don’t have it just do it anyways
|---------|
|----5----|
|---------|
|---------|
|---------|
|---------|

Intro - Distortion
|---------------|
|---------------|
|----9----------|
|----9----2-----|   x8
|----7----2-----|
|---------2-----|

Chorus – Heavy Distortion
|------------------------------|
|------------------------------|
|------------------------------|
|--2----5-------------0h2------|    x8
|--2----5----------------------|
|--2----5-----0h2p0h2-----0----|

Outro – Heavy Distortion
|--------------|
|--------------|
|--------------|
|---2-------2--|    x4
|---2-------2--|
|---2-------2--|


Enjoy! BTW Metallica IS the shiznit!!!!


Текст, аккорды и табулатура для песни "Show Me How To Live", исполняет "Audioslave".
Используемые в песне аккорды можно найти в разделе Как брать аккорды. Аккорды для шестиструнной гитары. Другие песни можно найти на нашем сайте, воспользовавшись алфавитным указателем вверху страницы.


Слушать онлайн Show Me How To Live


AudioslaveShow Me How To Live на Яндекс.Музыке


 
Ошибка в тексте? Выделите ошибку и нажмите Ctrl+Enter