Audioslave

Show me how to live

Drop D tuning

    Intro             Verse
     n    ^
E:---------------|------------------------------------------|
B:--(3)----------|------------------------------------------|
G:---2-----------|------------------------------------------|
D:---0--x-2------|----0h2-----------------------------------|
A:---5--x-2------|---------x-0-2-xx-0-2-x--------------3p0--|
D:------x-2------|-0h2-(2)-x-0-2-xx-0-2-x-7/8-7-x-5p2--3p0--|


E:------------------------------------------|
B:------------------------------------------|
G:------------------------------------------|
D:----0h2-----------------------------------|
A:---------x-0-2-xx-0-2---------------------|
D:-0h2-(2)-x-0-2-xx-0-2---------------------|


Chorus
                       ^
E:-----------------------|
B:-----------------------|
G:-----------------------|
D:---2---5--------0h2--0-|
A:---2---5-------------0-|
D:---2---5-0h2-0h2-(2)-0-|


Breakdown part


A stuttering tremolo with an effect Ive omly seen/heard on a 
zoom 505, step appregio (from memory, got rid of the noisy 
thing awhile ago, damn it).

The rest your've already learnt, sweet as.

Comments welcome, as claiming perfect renditions
of Morello's playing is just foolishness.


Текст, аккорды и табулатура для песни "Show Me How To Live", исполняет "Audioslave".
Используемые в песне аккорды можно найти в разделе Как брать аккорды. Аккорды для шестиструнной гитары. Другие песни можно найти на нашем сайте, воспользовавшись алфавитным указателем вверху страницы.


Слушать онлайн Show Me How To Live


AudioslaveShow Me How To Live на Яндекс.Музыке


 
Ошибка в тексте? Выделите ошибку и нажмите Ctrl+Enter