ARTIST: AUDIOSLAVE
SONG: SHOW ME HOW TO LIVE
ALBUM: AUDIOSLAVE

This is my first tab, its 100% correct. I was at a band practice and a friend 
of mine had a magazine written by Tom Morello and Tim Commerford, the singer
and lead guitarist of Audioslave. ENJOY..........

Drop D tuning
(low to high) D-A-D-G-B-E

Tablature explanation:

h       hammer on
p       pull of
x       mute
/       slide
p.m.    palm mute

INTRO:

e]---------------------------------------------------  Play 3 times
b]---3------------------------------------3----------
g]---2------------------------------------2----------
d]---0-------2----------------(2)--0------0-------2--
a]-----------2----------------(2)--0--------------2--
e]-----------2----------------(2)--0--------------2--
             ^HOLD THESE CHORDS^

2ND PART OF INTRO:

e]-------------------------------------------------------------------------
b]-------------------------------------------------------------------------
g]-------------------------------------------------------------------------
d]---------2---------------------------------------------------------------
a]------2---------------------------------------------------0--------------
e]--0h2---------x--0---2---x--x--0---2----x--7/8--7---x--x-----2----2--5--0

e]--------------------------------------
b]--------------------------------------
g]--------------------------------------
d]--------2-----------------------------
a]------2-------------------------------
e]--0h2--------x--0---2---x--x--0---2---

RIFF B VERSE: ALL PALM MUTED
        AND WITH THE  EARLY              DAWN        MOVING        RIGHT 
e]---------------------------------------------------------------------
b]---------------------------------------------------------------------
g]---------------------------------------------------------------------
d]--------2------------------------------------------------------------
a]------2----------------------------------------------------------0---
e]--0h2--------x--0---2--x--x---x---0----2----x---x--7/8--7---x--x----2
    a    long              couldn't     buy           an   eyeful  of sleep
e]----------------------------------------------------------
b]----------------------------------------------------------
g]----------------------------------------------------------
d]-----------------------2----------------------------------
a]---------------------2------------------------------------
e]--5---0----0-----0h2--------x---0-----2--x--x---x---0----2

CHORUS:
    NAIL IN     MY   HAND
e]-------------------------------
b]-------------------------------
g]------------------------------- Repeat twice
d]------------------------0h2----
a]--2----5---------------------0-
e]--2----5---0--2p0--2p0-------0-

VERSE: ALL SLIGHTLY PALM MUTED
Repeat Riff B, then do this after he says 'received'
          BUILT WITH STOLEN             PARTS      A TELEPHONE      IN
e]------------------------------------------------------------------
b]------------------------------------------------------------------
g]------------------------------------------------------------------
d]------2-----------------------------------------------------------
a]-----2-------------2------------------2-----------------------0---
e]--0h2-----x---0----2--x--x---x---0----2---x--x--7/8--7---x--x---2-
       MY      HEART (additional lryics at bottom)
e]-------------------I---------------------------------------
b]-------------------I---------------------------------------
g]-------------------I---------------------------------------
d]-------------------I------2--------------------------------repeat 
a]-------------------I-----2-------------2-----------------2-this part
e]---2---5---0----0--I--0h2-----x---0----2----x---x---0----2-
                                                    ^ 
                                  when you repeat add an extra x here

e]--------------------------------------------------------------------
b]--------------------------------------------------------------------
g]--------------------------------------------------------------------
d]------2-------------------------------------------------------------
a]-----2-------------2---------0----2----x----x----x----x--x---x--x--x
e]--0h2-----x---0----2--x--x---0----2----x----x----x----x--x---x--x--x

CHORUS

BRIDGE:

e]----------
b]---3------
g]---2------
d]---0---2--
a]-------2--
e]-------2--

SOLO: something about a digiTech Whammy Pedal and Toggle Switch
                                                 ^Whammy of
e]--0------------------0---------------------0-----0
b]-------------------------------------------0-----0
g]-------------------------------------------------0
d]-------------------------------------------------0
a]-------------------------------------------------0
e]-------------------------------------------------0

You will have to listen to the song to piece this together. I told you 
it was my first tab so go easy on the setup.

Mmmmmmmmmm
1. and with the early dawn moving right a long couldn't buy an eyefull
of sleep and in the aching night under satelites I was not received.
2. built with stloen parts, a telephone in my heart. some one get me a
priest to put my mind to bed. This ringing in my head, is this a cure
or is this a disease?
3. and in the after birth on the quiet earth let the stains re-mind you
You thought you made a man, you better think again before my role defines
you
Chorus: Nail in my hand  from my creator you gave me life now show me how
to live.


Текст, аккорды и табулатура для песни "Show Me How To Live", исполняет "Audioslave".
Используемые в песне аккорды можно найти в разделе Как брать аккорды. Аккорды для шестиструнной гитары. Другие песни можно найти на нашем сайте, воспользовавшись алфавитным указателем вверху страницы.


Слушать онлайн Show Me How To Live


AudioslaveShow Me How To Live на Яндекс.Музыке


 
Ошибка в тексте? Выделите ошибку и нажмите Ctrl+Enter