Audioslave - Like A Stone
tabbed by [email protected]

i know there are a lot of versions of Like A Stone here. 
Many have the idea of how the song goes. There's even one from GW. 
Tom Morello did record the song half a step up but he plays it in 
standard live. i've tabbed how somewhat what i've seen it live on Broadway. 

intro/verse (clean w/ tremelo)
e||------------------------------------------||
B||o----------------------------------------o||
G||------------------------------------------||
D||---8------10-----------------13------12*--||*or play 10
A||o-----10------8------12------------------o||
E||-----------------10------11------11-------||

chorus (light distortion)                 2x
e||-----------------------------------------||
B||o---------------------------------------o||
G||---3--------7--------3--------10---------||
D||---5--------8--------5--------10---------||
A||o--5--------8--------5--------8---------o||
E||---3--------6--------3--------8----------|| 
     Gm        Bb      Gm       C/F5

e|---------------------------------------|
B|--8------------------------------------|
G|--8--------3--------10--------3--------|
D|--8--------5--------10--------5--------|
A|--6--------5--------8---------5--------|
E|-----------3--------8---------3--------|
    D#      Gm       C/F5      Gm 

e|---------------------------------------|
B|--8------------------------------------|
G|--8--------3--------5---------5--------|
D|--8--------5--------7---------7--------|
A|--6--------5--------5---------5--------|
E|-----------3---------------------------|
    D#      Gm      Am/D      Am/D 

then verse and chorus again

solo (DigiTech Whammy set 2 octaves up w/ delay)
e|---------------------------------------------------|
B|---------------------------------------------------|
G|---------------------------------------------------|
D|---------------------------------------------------|
A|--10^-----12^---13^-----15^---13^---12^---10^------|
E|---------------------------------------------------|
^bend with Whammmy...hit note while pressing down on whammy

e|------------------------------------------------|
B|------------------------------------------------|
G|------------------------------------------------|
D|------------------------------------------------|
A|--10^----12^------------13^---15^---17^---(17)--|
E|---------------13^------------------------------|
                                      (note produced by delay)
e|--------------------------------------------|
B|--------------------------------------------|
G|--^15-15-15--14-14-14-----------------------|
D|-----------------------15-15-15--12-12-12---|
A|--------------------------------------------|
E|--------------------------------------------| 4x
^leave Whammy in toe down position

e|----------------------------------------------------------------|
B|----------------------------------------------------------------|
G|----------------------------------------------------------------|
D|----------------------------------------------------------------|
A|----------------------------------------------------------------|
E|--3^--5^--6^--8^--10^--11^--13^--15^--17^--18^--17^--18^--17^---|

breakdown (acoustic....but live Morello plays with light distortion)
e||-----------------------------------------------------------------------|
B||o--8---8-8---8-8-x------------------------------------8---8-8---8-8-x--|
G||---8---8-8---8-8-x--7---7-7---7-7-x--7---7-7---7-7-x--8---8-8---8-8-x--|
D||---8---8-8---8-8-x--8---8-8---8-8-x--7---7-7---7-7-x--8---8-8---8-8-x--|
A||o--6---6-6---6-6-x--8---8-8---8-8-x--5---5-5---5-5-x--6---6-6---6-6-x--|
E||--------------------6---6-6---6-6-x--5---5-5---5-5-x-------------------|
      D#               Bb               A/D5               D#
  ________________________________________________________________________
 |1.
e|--6---6-6---6-6-x--3---3-3---3-3-x-------------------------------------||
B|--7---7-7---7-7-x--4---4-4---4-4-x------------------------------------o||
G|--8---8-8---8-8-x--3---3-3---3-3-x--7---7-7---7-7-x--7---7-7---7-7-x---||
D|--8---8-8---8-8-x--5---5-5---5-5-x--7---7-7---7-7-x--8---8-8---8-8-x---||
A|--6---6-6---6-6-x--3---3-3---3-3-x--5---5-5---5-5-x--8---8-8---8-8-x--o||
E|------------------------------------5---5-5---5-5-x--6---6-6---6-6-x---||
   D#m               Cm7              A/D5             Bb
  ______________
 |2.
e|--6---6-6---6-6-x--3---3-3---3-3-x------------------------------------||
B|--7---7-7---7-7-x--4---4-4---4-4-x------------------------------------||
G|--8---8-8---8-8-x--3---3-3---3-3-x--5---5-5---5-5-5-5-5-5-5-5-5-5-5---||
D|--8---8-8---8-8-x--5---5-5---5-5-x--7---7-7---7-7-7-7-7-7-7-7-7-7-7---||
A|--6---6-6---6-6-x--3---3-3---3-3-x--5---5-5---5-5-5-5-5-5-5-5-5-5-5---||
E|----------------------------------------------------------------------||

the play chorus playing Am/D a couple more times then letting Eb ring
e|-----------------------------|
B|-----------------------------|
G|--5--------5--------0--------|
D|--7--------7--------8--------|
A|--5--------5--------6--------|
E|-----------------------------|
   Am/D               Eb        

That's about it. Enjoy the song. 
Chris Cornell has some great vocals in this song.


Текст, аккорды и табулатура для песни "Like A Stone (ver 12)", исполняет "Audioslave".
Используемые в песне аккорды можно найти в разделе Как брать аккорды. Аккорды для шестиструнной гитары. Другие песни можно найти на нашем сайте, воспользовавшись алфавитным указателем вверху страницы.


 
Ошибка в тексте? Выделите ошибку и нажмите Ctrl+Enter