-------------------------------------------------------------------------------
			     Audioslave - Like a Stone
-------------------------------------------------------------------------------

Tabbed by: Ryan	
Email: [email protected]

This tab is 100% correct. It is out of Guitar world magazine.(May 2003)

Tuning: One and a half steps up (G-c-F-A#-D-G)

Intro/Verse
|----------------|-------------------------|------------------|
|----------------|-------------------------|------------------|
|----------------|-------------------------|------------------|
|----------------|-------------------------|------------------|
|--10------------|--12---------------------|---------9--(9)---|
|-------12--(12)-|--------10--(10) (10)--7-|---7--------------|

|---------------------------|
|---------------------------|
|---------------------------|
|--------(10)(10)-------7---|
|---------------------------|
|---8--------------8--------|


Chorus (w/ light overdrive)

  Em              G            D5          Em
|--------------|------------|-----------|----------|
|--------------|------------|--3--------|----------|2x
|--0-----------|--0---------|--2--------|--0-------|
|--2-----------|--0---------|--0--------|--2-------|
|--2-----------|--2---------|--0--------|--2-------|
|--0-----------|--3---------|-----------|--0-------|

   C              Em           D5          Em
|--------------|------------|-----------|----------|
|--1-----------|------------|--3--------|----------|
|--0-----------|--0---------|--2--------|--0-------|
|--2-----------|--2---------|--0--------|--2-------|
|--3-----------|--2---------|--0--------|--2-------|
|--3-----------|--0---------|-----------|--0-------|

   C              Em           B7
|--------------|------------|-----------|
|--1-----------|------------|-----------|
|--0-----------|--0---------|--2--------|
|--2-----------|--2---------|--1--------|
|--3-----------|--2---------|--2--------|
|--3-----------|--0---------|-----------|

Solo: (w/ Dist. and Whammy pedal, set 2 ovtaves up)


C--7-----------9--|---10------------|--12------10-(10)---9-|--7----------------|
G-----------------|-----------------|----------------------|-------------------|


A#----------------|--------------|--------------------|-----------------12--12-|
F-----------------|--------------|--------------------|------------------------|
C--7-----------9--|---5----------|--10--------12------|--14--------(14)--------|


|---------------------------------------|
|---------------------------------------|2x
|--12--11-11-11------------------12-12--|
|----------------12-12-12--9-9-9--------|
|---------------------------------------|
|---------------------------------------|

|----------------------------------|
|----------------------------------|
|--12--11-11-11--------------------|
|----------------12-12-12--9-9-9---|
|----------------------------------|
|----------------------------------|

|--------------|----------------|------------------|----------------------|
|--------------|----------------|------------------|----------------------|
|--------------|----------------|------------------|----------------------|
|--------------|----------------|------------------|----------------------|
|--------------|----------------|------------------|----------------------|
|--0--2--3--5--|--7--8--10--12--|--14--15--14--15--|--14~~~~~~~~~~~~~~~~~~|

Bridge (Acustic)

|--0--0--0--(0)--0--0-----|--3--3--3--(3)--3--3-----|--2--2--2--(2)--2--2-----|
|--1--1--1--(1)--1--1--0--|--0--0--0--(0)--0--0--0--|--0--0--0--(0)--0--0--0--|
|--0--0--0--(0)--0--0--0--|--0--0--0--(0)--0--0--0--|--0--0--0--(0)--0--0--0--|
|--2--2--2--(2)--2--2--0--|--0--0--0--(0)--0--0--0--|--1--1--1--(1)--1--1--0--|
|--3--3--3--(3)--3--3--0--|--2--2--2--(2)--2--2--0--|--2--2--2--(2)--2--2-----|
|-------------------------|--3--3--3--(3)--3--3-----|-------------------------|

|--0--0--0--(0)--0--0-----|--3--3--3--(3)--3--------|--0--0--0--(0)--0--0------|
|--1--1--1--(1)--1--1-----|--4--4--4--(4)--4-----0--|--2--2--2--(2)--2--2--0---|
|--0--0--0--(0)--0--0-----|--5--5--5--(5)--5-----0--|--0--0--0--(0)--0--0--0---|
|--2--2--2--(2)--2--2-----|--5--5--5--(5)--5--x--0--|--2--2--2--(2)--2--2--0---|
|--3--3--3--(3)--3--3-----|--3--3--3--(3)--3--x-----|--0--0--0--(0)--0--0------|
|----------------------0--|-------------------0-----|--------------------------|

|--2--2--2--(2)--2--2-----|--0--0--0--(0)--0--0--0--|
|--0--0--0--(0)--0--0--0--|--0--0--0--(0)--0--0--0--|
|--2--2--2--(2)--2--2--0--|--0--0--0--(0)--0--0--0--|
|--1--1--1--(1)--1--1--0--|--2--2--2--(2)--2--2--0--|
|--2--2--2--(2)--2--2-----|--2--2--2--(2)--2--2--0--|
|-------------------------|--0--0--0--(0)--0--0--0--|

|--0--0--0--(0)--0--0-----|--3--3--3--(3)--3--3-----|--2--2--2--(2)--2--2-----|
|--1--1--1--(1)--1--1-----|--0--0--0--(0)--0--0--0--|--0--0--0--(0)--0--0--0--|
|--0--0--0--(0)--0--0-----|--0--0--0--(0)--0--0--0--|--0--0--0--(0)--0--0--0--|
|--2--2--2--(2)--2--2-----|--0--0--0--(0)--0--0--0--|--1--1--1--(1)--1--1--0--|
|--3--3--3--(3)--3--3-----|--2--2--2--(2)--2--2--0--|--2--2--2--(2)--2--2-----|
|-------------------------|--3--3--3--(3)--3--3-----|-------------------------|

|--0--0--0--(0)--0--0-----|
|--1--1--1--(1)--1--1--0--|
|--0--0--0--(0)--0--0--0--|
|--2--2--2--(2)--2--2--0--|
|--3--3--3--(3)--3--3--0--|
|-------------------------|

|--3--3--3--(3)--3------|--0--0--0--(0)--0--0-----|
|--4--4--4--(4)--4---0--|--2--2--2--(2)--2--2--0--|
|--5--5--5--(5)--5---0--|--0--0--0--(0)--0--0--0--|
|--5--5--5--(5)--5---0--|--2--2--2--(2)--2--2--0--|
|--3--3--3--(3)--3------|--0--0--0--(0)--0--0-----|
|-----------------------|-------------------------|

|--(2)--2--2--(2)--2--2--2--2--2--2--2--2--2--2-|
|--(2)--2--2--(2)--2--2--2--2--2--2--2--2--2--2-|
|---2---2--2--(2)--2--2--2--2--2--2--2--2--2--2-|
|---1---1--1--(1)--1--1--1--1--1--1--1--1--1--1-|
|---2---2--2--(2)--2--2--2--2--2--2--2--2--2--2-|
|-----------------------------------------------|

Chorus

| (9) Ghost note
| /  slide up
|   slide down
| h  hammer-on
| p  pull-off
| ~  vibrato
| +  harmonic
| x  Mute note

===============================================================================


Текст, аккорды и табулатура для песни "Like A Stone (ver 10)", исполняет "Audioslave".
Используемые в песне аккорды можно найти в разделе Как брать аккорды. Аккорды для шестиструнной гитары. Другие песни можно найти на нашем сайте, воспользовавшись алфавитным указателем вверху страницы.


 
Ошибка в тексте? Выделите ошибку и нажмите Ctrl+Enter