THE TOM MORELLO LIKE A STONE SOLO TABBED BY RUBEN RUIZ |__/~~~CALIIFORNIA~~~__/| 
 
do this with a digitech whammy pedal
riff 1
2:53-3:10
E|--------------------------------------------------
B|--------------------------------------------------
G|-12~-14-15~-17-15-14-12----12~-14/10~-15-17-19-19~
D|--------------------------------------------------
A|--------------------------------------------------
E|--------------------------------------------------

riff 2
3:10-3:18
E|-18-17------18-17------18-17------18-17-----
B|------18-15------18-15------18-15------18-15
G|--------------------------------------------
D|--------------------------------------------
A|--------------------------------------------
E|--------------------------------------------

riff 3
E|--------------------------17-18-17-18-17~--
B|--------------------18-20------------------
G|--12-14-15-17-19-20------------------------
D|-------------------------------------------
A|-------------------------------------------
E|-------------------------------------------

AUDIOSLAVE RULES


Текст, аккорды и табулатура для песни "Like A Stone", исполняет "Audioslave".
Используемые в песне аккорды можно найти в разделе Как брать аккорды. Аккорды для шестиструнной гитары. Другие песни можно найти на нашем сайте, воспользовавшись алфавитным указателем вверху страницы.


Слушать онлайн Like A Stone


AudioslaveLike A Stone на Яндекс.Музыке


 
Ошибка в тексте? Выделите ошибку и нажмите Ctrl+Enter